ISO-10303-21;
HEADER;
FILE_DESCRIPTION (( 'STEP AP203' ),
    '1' );
FILE_NAME ('WDS-600-207.step',
    '2012-04-05T13:15:14',
    ( 'SysAdmin' ),
    ( 'SolidWorks' ),
    'SwSTEP 2.0',
    'SolidWorks 2012',
    '' );
FILE_SCHEMA (( 'CONFIG_CONTROL_DESIGN' ));
ENDSEC;

DATA;
#1 = APPLICATION_CONTEXT ( 'configuration controlled 3d designs of mechanical parts and assemblies' ) ;
#2 = APPLICATION_CONTEXT ( 'configuration controlled 3d designs of mechanical parts and assemblies' ) ;
#3 = CARTESIAN_POINT ( 'NONE',  ( 17.50000000000000400, 0.0000000000000000000, -25.00000000000000000 ) ) ;
#4 = DIRECTION ( 'NONE',  ( 0.0000000000000000000, 0.0000000000000000000, 1.000000000000000000 ) ) ;
#5 = LINE ( 'NONE', #8, #198 ) ;
#6 = LINE ( 'NONE', #3, #207 ) ;
#7 = VERTEX_POINT ( 'NONE', #92 ) ;
#8 = CARTESIAN_POINT ( 'NONE',  ( 9.750000000000000000, 0.0000000000000000000, -13.00000000000000000 ) ) ;
#9 = CARTESIAN_POINT ( 'NONE',  ( 0.0000000000000000000, 0.0000000000000000000, -25.00000000000000000 ) ) ;
#10 = DIRECTION ( 'NONE',  ( 1.000000000000000000, 0.0000000000000000000, 0.0000000000000000000 ) ) ;
#11 = DIRECTION ( 'NONE',  ( 0.0000000000000000000, 0.0000000000000000000, 1.000000000000000000 ) ) ;
#12 = DIRECTION ( 'NONE',  ( -1.000000000000000000, 0.0000000000000000000, 0.0000000000000000000 ) ) ;
#13 = CARTESIAN_POINT ( 'NONE',  ( 0.0000000000000000000, 0.0000000000000000000, 0.0000000000000000000 ) ) ;
#14 = DIRECTION ( 'NONE',  ( 0.0000000000000000000, 0.0000000000000000000, 1.000000000000000000 ) ) ;
#15 = DIRECTION ( 'NONE',  ( -0.0000000000000000000, -0.0000000000000000000, -1.000000000000000000 ) ) ;
#16 = DIRECTION ( 'NONE',  ( -0.0000000000000000000, -0.0000000000000000000, 1.000000000000000000 ) ) ;
#17 = CARTESIAN_POINT ( 'NONE',  ( 0.0000000000000000000, 0.0000000000000000000, 0.001000000000001000100 ) ) ;
#18 = CARTESIAN_POINT ( 'NONE',  ( 0.0000000000000000000, 0.0000000000000000000, -25.00000000000000000 ) ) ;
#19 = DIRECTION ( 'NONE',  ( 1.000000000000000000, 0.0000000000000000000, 0.0000000000000000000 ) ) ;
#20 = DIRECTION ( 'NONE',  ( 0.0000000000000000000, 0.0000000000000000000, 1.000000000000000000 ) ) ;
#21 = DIRECTION ( 'NONE',  ( 1.000000000000000000, 0.0000000000000000000, 0.0000000000000000000 ) ) ;
#22 = CARTESIAN_POINT ( 'NONE',  ( 0.0000000000000000000, 0.0000000000000000000, -13.00000000000000000 ) ) ;
#23 = DIRECTION ( 'NONE',  ( 1.000000000000000000, 0.0000000000000000000, 0.0000000000000000000 ) ) ;
#24 = CARTESIAN_POINT ( 'NONE',  ( 0.0000000000000000000, 0.0000000000000000000, -25.00000000000000000 ) ) ;
#25 = DIRECTION ( 'NONE',  ( 1.000000000000000000, 0.0000000000000000000, 0.0000000000000000000 ) ) ;
#26 = DIRECTION ( 'NONE',  ( 0.0000000000000000000, 0.0000000000000000000, 1.000000000000000000 ) ) ;
#27 = CARTESIAN_POINT ( 'NONE',  ( 0.0000000000000000000, 0.0000000000000000000, 0.0000000000000000000 ) ) ;
#28 = CARTESIAN_POINT ( 'NONE',  ( -9.750000000000000000, 1.194030629168669100E-015, -13.00000000000000000 ) ) ;
#29 = DIRECTION ( 'NONE',  ( 0.0000000000000000000, 0.0000000000000000000, 1.000000000000000000 ) ) ;
#30 = DIRECTION ( 'NONE',  ( -0.0000000000000000000, -0.0000000000000000000, 1.000000000000000000 ) ) ;
#31 = ORIENTED_EDGE ( 'NONE', *, *, #347, .F. ) ;
#32 = LINE ( 'NONE', #28, #209 ) ;
#33 = DIRECTION ( 'NONE',  ( -0.0000000000000000000, -0.0000000000000000000, -1.000000000000000000 ) ) ;
#34 = ORIENTED_EDGE ( 'NONE', *, *, #372, .T. ) ;
#35 = ORIENTED_EDGE ( 'NONE', *, *, #329, .T. ) ;
#36 = ORIENTED_EDGE ( 'NONE', *, *, #364, .T. ) ;
#37 = EDGE_LOOP ( 'NONE', ( #119, #132 ) ) ;
#38 = VERTEX_POINT ( 'NONE', #87 ) ;
#39 = EDGE_LOOP ( 'NONE', ( #31, #98, #105, #136 ) ) ;
#40 = VERTEX_POINT ( 'NONE', #89 ) ;
#41 = ORIENTED_EDGE ( 'NONE', *, *, #367, .T. ) ;
#42 = ORIENTED_EDGE ( 'NONE', *, *, #347, .T. ) ;
#43 = EDGE_LOOP ( 'NONE', ( #140, #103 ) ) ;
#44 = EDGE_LOOP ( 'NONE', ( #129, #130, #104, #127 ) ) ;
#45 = LINE ( 'NONE', #170, #197 ) ;
#46 = ORIENTED_EDGE ( 'NONE', *, *, #326, .F. ) ;
#47 = DIRECTION ( 'NONE',  ( 1.000000000000000000, 0.0000000000000000000, 0.0000000000000000000 ) ) ;
#48 = DIRECTION ( 'NONE',  ( 0.0000000000000000000, 0.0000000000000000000, 1.000000000000000000 ) ) ;
#49 = CARTESIAN_POINT ( 'NONE',  ( 0.0000000000000000000, 0.0000000000000000000, -13.00000000000000000 ) ) ;
#50 = PLANE ( 'NONE',  #290 ) ;
#51 = DIRECTION ( 'NONE',  ( 0.0000000000000000000, 0.0000000000000000000, 1.000000000000000000 ) ) ;
#52 = CARTESIAN_POINT ( 'NONE',  ( 0.0000000000000000000, 0.0000000000000000000, -25.00000000000000000 ) ) ;
#53 = DIRECTION ( 'NONE',  ( 1.000000000000000000, 0.0000000000000000000, -0.0000000000000000000 ) ) ;
#54 = DIRECTION ( 'NONE',  ( -1.000000000000000000, 0.0000000000000000000, 0.0000000000000000000 ) ) ;
#55 = DIRECTION ( 'NONE',  ( 0.0000000000000000000, 0.0000000000000000000, -1.000000000000000000 ) ) ;
#56 = DIRECTION ( 'NONE',  ( 0.0000000000000000000, 0.0000000000000000000, -1.000000000000000000 ) ) ;
#57 = DIRECTION ( 'NONE',  ( 1.000000000000000000, 0.0000000000000000000, 0.0000000000000000000 ) ) ;
#58 = CARTESIAN_POINT ( 'NONE',  ( 0.0000000000000000000, 0.0000000000000000000, -0.5000000000000073300 ) ) ;
#59 = DIRECTION ( 'NONE',  ( -0.0000000000000000000, -0.0000000000000000000, 1.000000000000000000 ) ) ;
#60 = DIRECTION ( 'NONE',  ( 1.000000000000000000, 0.0000000000000000000, 0.0000000000000000000 ) ) ;
#61 = CARTESIAN_POINT ( 'NONE',  ( 0.0000000000000000000, 0.0000000000000000000, -13.00000000000000000 ) ) ;
#62 = DIRECTION ( 'NONE',  ( 0.0000000000000000000, 0.0000000000000000000, -1.000000000000000000 ) ) ;
#63 = DIRECTION ( 'NONE',  ( 1.000000000000000000, 0.0000000000000000000, 0.0000000000000000000 ) ) ;
#64 = DIRECTION ( 'NONE',  ( -0.0000000000000000000, -0.0000000000000000000, -1.000000000000000000 ) ) ;
#65 = DIRECTION ( 'NONE',  ( -1.000000000000000000, 0.0000000000000000000, 0.0000000000000000000 ) ) ;
#66 = CARTESIAN_POINT ( 'NONE',  ( 0.0000000000000000000, 0.0000000000000000000, -13.00000000000000000 ) ) ;
#67 = CARTESIAN_POINT ( 'NONE',  ( 0.0000000000000000000, 0.0000000000000000000, 0.0000000000000000000 ) ) ;
#68 = DIRECTION ( 'NONE',  ( -1.000000000000000000, 0.0000000000000000000, 0.0000000000000000000 ) ) ;
#69 = CARTESIAN_POINT ( 'NONE',  ( 0.0000000000000000000, 0.0000000000000000000, 0.0000000000000000000 ) ) ;
#70 = DIRECTION ( 'NONE',  ( 0.0000000000000000000, 0.0000000000000000000, -1.000000000000000000 ) ) ;
#71 = DIRECTION ( 'NONE',  ( -1.000000000000000000, 0.0000000000000000000, 0.0000000000000000000 ) ) ;
#72 = ORIENTED_EDGE ( 'NONE', *, *, #353, .T. ) ;
#73 = DIRECTION ( 'NONE',  ( -0.0000000000000000000, -0.0000000000000000000, -1.000000000000000000 ) ) ;
#74 = CARTESIAN_POINT ( 'NONE',  ( -17.50000000000000400, 2.143131898507868600E-015, -0.5000000000000073300 ) ) ;
#75 = CARTESIAN_POINT ( 'NONE',  ( 0.0000000000000000000, 0.0000000000000000000, 0.001000000000001000100 ) ) ;
#76 = CARTESIAN_POINT ( 'NONE',  ( 17.00000000000000700, 2.112515728529184900E-015, 0.0000000000000000000 ) ) ;
#77 = CARTESIAN_POINT ( 'NONE',  ( -17.50000000000000400, 2.143131898507868600E-015, -25.00000000000000000 ) ) ;
#78 = CARTESIAN_POINT ( 'NONE',  ( -6.500000000000000900, 0.0000000000000000000, -13.00000000000000000 ) ) ;
#79 = DIRECTION ( 'NONE',  ( 0.0000000000000000000, 0.0000000000000000000, 1.000000000000000000 ) ) ;
#80 = CARTESIAN_POINT ( 'NONE',  ( -17.00000000000000700, 0.0000000000000000000, 0.0000000000000000000 ) ) ;
#81 = CARTESIAN_POINT ( 'NONE',  ( -17.00000000000000700, 0.0000000000000000000, 0.0000000000000000000 ) ) ;
#82 = CARTESIAN_POINT ( 'NONE',  ( 17.50000000000000400, 0.0000000000000000000, -0.5000000000000073300 ) ) ;
#83 = CARTESIAN_POINT ( 'NONE',  ( 17.50000000000000400, 0.0000000000000000000, -25.00000000000000000 ) ) ;
#84 = CARTESIAN_POINT ( 'NONE',  ( 6.500000000000000900, 7.960204194457796500E-016, -25.00000000000000000 ) ) ;
#85 = CARTESIAN_POINT ( 'NONE',  ( -9.750000000000000000, 1.194030629168669100E-015, 0.0000000000000000000 ) ) ;
#86 = ORIENTED_EDGE ( 'NONE', *, *, #377, .F. ) ;
#87 = CARTESIAN_POINT ( 'NONE',  ( -6.500000000000000900, 0.0000000000000000000, -25.00000000000000000 ) ) ;
#88 = ORIENTED_EDGE ( 'NONE', *, *, #370, .T. ) ;
#89 = CARTESIAN_POINT ( 'NONE',  ( -9.750000000000000000, 1.194030629168669100E-015, -13.00000000000000000 ) ) ;
#90 = ORIENTED_EDGE ( 'NONE', *, *, #321, .F. ) ;
#91 = CARTESIAN_POINT ( 'NONE',  ( 6.500000000000000900, 7.960204194457796500E-016, -13.00000000000000000 ) ) ;
#92 = CARTESIAN_POINT ( 'NONE',  ( 9.750000000000000000, 0.0000000000000000000, 0.0000000000000000000 ) ) ;
#93 = ORIENTED_EDGE ( 'NONE', *, *, #324, .F. ) ;
#94 = VERTEX_POINT ( 'NONE', #84 ) ;
#95 = ORIENTED_EDGE ( 'NONE', *, *, #360, .T. ) ;
#96 = ORIENTED_EDGE ( 'NONE', *, *, #320, .F. ) ;
#97 = ORIENTED_EDGE ( 'NONE', *, *, #321, .T. ) ;
#98 = ORIENTED_EDGE ( 'NONE', *, *, #368, .F. ) ;
#99 = ORIENTED_EDGE ( 'NONE', *, *, #340, .T. ) ;
#100 = ORIENTED_EDGE ( 'NONE', *, *, #326, .T. ) ;
#101 = ORIENTED_EDGE ( 'NONE', *, *, #367, .F. ) ;
#102 = ORIENTED_EDGE ( 'NONE', *, *, #346, .F. ) ;
#103 = ORIENTED_EDGE ( 'NONE', *, *, #356, .F. ) ;
#104 = ORIENTED_EDGE ( 'NONE', *, *, #320, .T. ) ;
#105 = ORIENTED_EDGE ( 'NONE', *, *, #342, .T. ) ;
#106 = ORIENTED_EDGE ( 'NONE', *, *, #368, .T. ) ;
#107 = VERTEX_POINT ( 'NONE', #85 ) ;
#108 = VERTEX_POINT ( 'NONE', #121 ) ;
#109 = ORIENTED_EDGE ( 'NONE', *, *, #336, .F. ) ;
#110 = ORIENTED_EDGE ( 'NONE', *, *, #336, .T. ) ;
#111 = ORIENTED_EDGE ( 'NONE', *, *, #356, .T. ) ;
#112 = ORIENTED_EDGE ( 'NONE', *, *, #346, .T. ) ;
#113 = ORIENTED_EDGE ( 'NONE', *, *, #370, .F. ) ;
#114 = ORIENTED_EDGE ( 'NONE', *, *, #340, .F. ) ;
#115 = ORIENTED_EDGE ( 'NONE', *, *, #324, .T. ) ;
#116 = ORIENTED_EDGE ( 'NONE', *, *, #318, .F. ) ;
#117 = DIRECTION ( 'NONE',  ( -0.7071067811865402500, 0.0000000000000000000, -0.7071067811865549000 ) ) ;
#118 = EDGE_LOOP ( 'NONE', ( #101, #86, #112, #115 ) ) ;
#119 = ORIENTED_EDGE ( 'NONE', *, *, #377, .T. ) ;
#120 = ORIENTED_EDGE ( 'NONE', *, *, #342, .F. ) ;
#121 = CARTESIAN_POINT ( 'NONE',  ( 9.750000000000000000, 0.0000000000000000000, -13.00000000000000000 ) ) ;
#122 = EDGE_LOOP ( 'NONE', ( #35, #99 ) ) ;
#123 = EDGE_LOOP ( 'NONE', ( #93, #113 ) ) ;
#124 = ORIENTED_EDGE ( 'NONE', *, *, #316, .F. ) ;
#125 = EDGE_LOOP ( 'NONE', ( #124, #41, #88, #102 ) ) ;
#126 = EDGE_LOOP ( 'NONE', ( #90, #46 ) ) ;
#127 = ORIENTED_EDGE ( 'NONE', *, *, #372, .F. ) ;
#128 = EDGE_LOOP ( 'NONE', ( #106, #36 ) ) ;
#129 = ORIENTED_EDGE ( 'NONE', *, *, #360, .F. ) ;
#130 = ORIENTED_EDGE ( 'NONE', *, *, #329, .F. ) ;
#131 = EDGE_LOOP ( 'NONE', ( #154, #100, #110, #34 ) ) ;
#132 = ORIENTED_EDGE ( 'NONE', *, *, #316, .T. ) ;
#133 = CARTESIAN_POINT ( 'NONE',  ( 0.0000000000000000000, 0.0000000000000000000, 0.0000000000000000000 ) ) ;
#134 = EDGE_LOOP ( 'NONE', ( #139, #42, #111, #120 ) ) ;
#135 = EDGE_LOOP ( 'NONE', ( #114, #95, #116, #96 ) ) ;
#136 = ORIENTED_EDGE ( 'NONE', *, *, #323, .T. ) ;
#137 = ORIENTED_EDGE ( 'NONE', *, *, #318, .T. ) ;
#138 = EDGE_LOOP ( 'NONE', ( #97, #72, #137, #109 ) ) ;
#139 = ORIENTED_EDGE ( 'NONE', *, *, #364, .F. ) ;
#140 = ORIENTED_EDGE ( 'NONE', *, *, #323, .F. ) ;
#141 = DIRECTION ( 'NONE',  ( -0.0000000000000000000, -0.0000000000000000000, -1.000000000000000000 ) ) ;
#142 = DIRECTION ( 'NONE',  ( 0.0000000000000000000, 0.0000000000000000000, 1.000000000000000000 ) ) ;
#143 = DIRECTION ( 'NONE',  ( 0.0000000000000000000, 0.0000000000000000000, 1.000000000000000000 ) ) ;
#144 = DIRECTION ( 'NONE',  ( -0.0000000000000000000, -0.0000000000000000000, 1.000000000000000000 ) ) ;
#145 = CARTESIAN_POINT ( 'NONE',  ( 0.0000000000000000000, 0.0000000000000000000, -0.5000000000000073300 ) ) ;
#146 = CARTESIAN_POINT ( 'NONE',  ( 0.0000000000000000000, 0.0000000000000000000, -13.00000000000000000 ) ) ;
#147 = DIRECTION ( 'NONE',  ( 1.000000000000000000, 0.0000000000000000000, -0.0000000000000000000 ) ) ;
#148 = DIRECTION ( 'NONE',  ( 1.000000000000000000, 0.0000000000000000000, 0.0000000000000000000 ) ) ;
#149 = DIRECTION ( 'NONE',  ( 0.0000000000000000000, 0.0000000000000000000, -1.000000000000000000 ) ) ;
#150 = DIRECTION ( 'NONE',  ( 1.000000000000000000, 0.0000000000000000000, 0.0000000000000000000 ) ) ;
#151 = VERTEX_POINT ( 'NONE', #80 ) ;
#152 = LINE ( 'NONE', #81, #218 ) ;
#153 = LINE ( 'NONE', #164, #306 ) ;
#154 = ORIENTED_EDGE ( 'NONE', *, *, #353, .F. ) ;
#155 = DIRECTION ( 'NONE',  ( 1.000000000000000000, 0.0000000000000000000, -0.0000000000000000000 ) ) ;
#156 = PLANE ( 'NONE',  #276 ) ;
#157 = CARTESIAN_POINT ( 'NONE',  ( 0.0000000000000000000, 0.0000000000000000000, -25.00000000000000000 ) ) ;
#158 = DIRECTION ( 'NONE',  ( 1.000000000000000000, 0.0000000000000000000, 0.0000000000000000000 ) ) ;
#159 = CARTESIAN_POINT ( 'NONE',  ( 0.0000000000000000000, 0.0000000000000000000, -25.00000000000000000 ) ) ;
#160 = DIRECTION ( 'NONE',  ( 1.000000000000000000, 0.0000000000000000000, 0.0000000000000000000 ) ) ;
#161 = CARTESIAN_POINT ( 'NONE',  ( 0.0000000000000000000, 0.0000000000000000000, -13.00000000000000000 ) ) ;
#162 = DIRECTION ( 'NONE',  ( 0.0000000000000000000, 0.0000000000000000000, 1.000000000000000000 ) ) ;
#163 = DIRECTION ( 'NONE',  ( 0.7071067811865402500, 8.659560562354844100E-017, -0.7071067811865549000 ) ) ;
#164 = CARTESIAN_POINT ( 'NONE',  ( 17.00000000000000700, 2.081899558550501500E-015, 0.0000000000000000000 ) ) ;
#165 = DIRECTION ( 'NONE',  ( -0.0000000000000000000, -0.0000000000000000000, -1.000000000000000000 ) ) ;
#166 = CARTESIAN_POINT ( 'NONE',  ( 6.500000000000000900, 7.960204194457796500E-016, 0.001000000000001000100 ) ) ;
#167 = DIRECTION ( 'NONE',  ( 0.0000000000000000000, 0.0000000000000000000, 1.000000000000000000 ) ) ;
#168 = LINE ( 'NONE', #166, #283 ) ;
#169 = VERTEX_POINT ( 'NONE', #82 ) ;
#170 = CARTESIAN_POINT ( 'NONE',  ( -6.500000000000000900, 0.0000000000000000000, 0.001000000000001000100 ) ) ;
#171 = VERTEX_POINT ( 'NONE', #91 ) ;
#172 = VERTEX_POINT ( 'NONE', #78 ) ;
#173 = DIRECTION ( 'NONE',  ( 1.000000000000000000, 0.0000000000000000000, 0.0000000000000000000 ) ) ;
#174 = CARTESIAN_POINT ( 'NONE',  ( 0.0000000000000000000, 0.0000000000000000000, -13.00000000000000000 ) ) ;
#175 = VERTEX_POINT ( 'NONE', #83 ) ;
#176 = CARTESIAN_POINT ( 'NONE',  ( 0.0000000000000000000, 0.0000000000000000000, 0.0000000000000000000 ) ) ;
#177 = CARTESIAN_POINT ( 'NONE',  ( 0.0000000000000000000, 0.0000000000000000000, -25.00000000000000000 ) ) ;
#178 = DIRECTION ( 'NONE',  ( 1.000000000000000000, 0.0000000000000000000, 0.0000000000000000000 ) ) ;
#179 = DIRECTION ( 'NONE',  ( 0.0000000000000000000, 0.0000000000000000000, -1.000000000000000000 ) ) ;
#180 = DIRECTION ( 'NONE',  ( 0.0000000000000000000, 0.0000000000000000000, 1.000000000000000000 ) ) ;
#181 = DIRECTION ( 'NONE',  ( -1.000000000000000000, 0.0000000000000000000, 0.0000000000000000000 ) ) ;
#182 = PLANE ( 'NONE',  #220 ) ;
#183 = CARTESIAN_POINT ( 'NONE',  ( 0.0000000000000000000, 0.0000000000000000000, 0.0000000000000000000 ) ) ;
#184 = DIRECTION ( 'NONE',  ( 0.0000000000000000000, 0.0000000000000000000, 1.000000000000000000 ) ) ;
#185 = VERTEX_POINT ( 'NONE', #77 ) ;
#186 = VERTEX_POINT ( 'NONE', #76 ) ;
#187 = VERTEX_POINT ( 'NONE', #74 ) ;
#188 = LINE ( 'NONE', #190, #275 ) ;
#189 = DIRECTION ( 'NONE',  ( 1.000000000000000000, 0.0000000000000000000, 0.0000000000000000000 ) ) ;
#190 = CARTESIAN_POINT ( 'NONE',  ( -17.50000000000000400, 2.143131898507868600E-015, -25.00000000000000000 ) ) ;
#191 = CYLINDRICAL_SURFACE ( 'NONE', #221, 17.50000000000000400 ) ;
#192 = AXIS2_PLACEMENT_3D ( 'NONE', #75, #73, #71 ) ;
#193 = FACE_OUTER_BOUND ( 'NONE', #44, .T. ) ;
#194 = AXIS2_PLACEMENT_3D ( 'NONE', #22, #16, #21 ) ;
#195 = CYLINDRICAL_SURFACE ( 'NONE', #194, 9.750000000000000000 ) ;
#196 = AXIS2_PLACEMENT_3D ( 'NONE', #17, #15, #12 ) ;
#197 = VECTOR ( 'NONE', #33, 1000.000000000000000 ) ;
#198 = VECTOR ( 'NONE', #144, 1000.000000000000000 ) ;
#199 = FACE_BOUND ( 'NONE', #123, .T. ) ;
#200 = CLOSED_SHELL ( 'NONE', ( #373, #378, #332, #335, #315, #350, #359, #325, #338, #369, #333 ) ) ;
#201 = AXIS2_PLACEMENT_3D ( 'NONE', #176, #180, #178 ) ;
#202 = AXIS2_PLACEMENT_3D ( 'NONE', #146, #141, #148 ) ;
#203 = FACE_BOUND ( 'NONE', #43, .T. ) ;
#204 = FACE_OUTER_BOUND ( 'NONE', #131, .T. ) ;
#205 = FACE_OUTER_BOUND ( 'NONE', #118, .T. ) ;
#206 = CYLINDRICAL_SURFACE ( 'NONE', #192, 6.500000000000000900 ) ;
#207 = VECTOR ( 'NONE', #4, 1000.000000000000000 ) ;
#208 = FACE_OUTER_BOUND ( 'NONE', #125, .T. ) ;
#209 = VECTOR ( 'NONE', #30, 1000.000000000000000 ) ;
#210 = CYLINDRICAL_SURFACE ( 'NONE', #196, 6.500000000000000900 ) ;
#211 = FACE_OUTER_BOUND ( 'NONE', #126, .T. ) ;
#212 = AXIS2_PLACEMENT_3D ( 'NONE', #24, #20, #23 ) ;
#213 = AXIS2_PLACEMENT_3D ( 'NONE', #177, #179, #181 ) ;
#214 = CYLINDRICAL_SURFACE ( 'NONE', #212, 17.50000000000000400 ) ;
#215 = AXIS2_PLACEMENT_3D ( 'NONE', #27, #26, #25 ) ;
#216 = AXIS2_PLACEMENT_3D ( 'NONE', #18, #14, #19 ) ;
#217 = FACE_OUTER_BOUND ( 'NONE', #39, .T. ) ;
#218 = VECTOR ( 'NONE', #117, 1000.000000000000100 ) ;
#219 = AXIS2_PLACEMENT_3D ( 'NONE', #145, #149, #150 ) ;
#220 = AXIS2_PLACEMENT_3D ( 'NONE', #183, #142, #147 ) ;
#221 = AXIS2_PLACEMENT_3D ( 'NONE', #9, #29, #189 ) ;
#222 = AXIS2_PLACEMENT_3D ( 'NONE', #13, #11, #10 ) ;
#223 = AXIS2_PLACEMENT_3D ( 'NONE', #159, #184, #173 ) ;
#224 = FACE_OUTER_BOUND ( 'NONE', #138, .T. ) ;
#225 = FACE_OUTER_BOUND ( 'NONE', #122, .T. ) ;
#226 = AXIS2_PLACEMENT_3D ( 'NONE', #69, #70, #68 ) ;
#227 = PRODUCT ( 'WDS-600-207', 'WDS-600-207', '', ( #247 ) ) ;
#228 = DESIGN_CONTEXT ( 'detailed design', #2, 'design' ) ;
#229 = MANIFOLD_SOLID_BREP ( 'Cut-Extrude3', #200 ) ;
#230 = PRODUCT_DEFINITION_SHAPE ( 'NONE', 'NONE',  #349 ) ;
#231 =( LENGTH_UNIT ( ) NAMED_UNIT ( * ) SI_UNIT ( .MILLI., .METRE. ) );
#232 =( NAMED_UNIT ( * ) PLANE_ANGLE_UNIT ( ) SI_UNIT ( $, .RADIAN. ) );
#233 = APPLICATION_PROTOCOL_DEFINITION ( 'international standard', 'config_control_design', 1994, #1 ) ;
#234 =( NAMED_UNIT ( * ) SI_UNIT ( $, .STERADIAN. ) SOLID_ANGLE_UNIT ( ) );
#235 = DIRECTION ( 'NONE',  ( 1.000000000000000000, 0.0000000000000000000, 0.0000000000000000000 ) ) ;
#236 = DIRECTION ( 'NONE',  ( 0.0000000000000000000, 0.0000000000000000000, 1.000000000000000000 ) ) ;
#237 = CARTESIAN_POINT ( 'NONE',  ( 0.0000000000000000000, 0.0000000000000000000, 0.0000000000000000000 ) ) ;
#238 = DATE_AND_TIME ( #289, #337 ) ;
#239 = APPROVAL_STATUS ( 'not_yet_approved' ) ;
#240 = APPROVAL_DATE_TIME ( #241, #354 ) ;
#241 = DATE_AND_TIME ( #304, #314 ) ;
#242 = PERSON_AND_ORGANIZATION ( #311, #274 ) ;
#243 = APPLICATION_PROTOCOL_DEFINITION ( 'international standard', 'config_control_design', 1994, #2 ) ;
#244 = SHAPE_DEFINITION_REPRESENTATION ( #230, #312 ) ;
#245 = PERSON_AND_ORGANIZATION_ROLE ( 'design_owner' ) ;
#246 = DATE_AND_TIME ( #278, #358 ) ;
#247 = MECHANICAL_CONTEXT ( 'NONE', #1, 'mechanical' ) ;
#248 = APPROVAL_ROLE ( '' ) ;
#249 = PERSON_AND_ORGANIZATION ( #311, #274 ) ;
#250 = APPROVAL_DATE_TIME ( #246, #362 ) ;
#251 = APPROVAL_STATUS ( 'not_yet_approved' ) ;
#252 = PERSON_AND_ORGANIZATION_ROLE ( 'creator' ) ;
#253 = DATE_AND_TIME ( #279, #352 ) ;
#254 = PERSON_AND_ORGANIZATION ( #311, #274 ) ;
#255 = PERSON_AND_ORGANIZATION ( #311, #274 ) ;
#256 = APPROVAL_STATUS ( 'not_yet_approved' ) ;
#257 = SECURITY_CLASSIFICATION_LEVEL ( 'unclassified' ) ;
#258 = DATE_TIME_ROLE ( 'creation_date' ) ;
#259 = DATE_AND_TIME ( #302, #355 ) ;
#260 = APPROVAL_ROLE ( '' ) ;
#261 = PERSON_AND_ORGANIZATION_ROLE ( 'design_supplier' ) ;
#262 = APPROVAL_DATE_TIME ( #259, #322 ) ;
#263 = PERSON_AND_ORGANIZATION ( #311, #274 ) ;
#264 = PERSON_AND_ORGANIZATION ( #311, #274 ) ;
#265 = PERSON_AND_ORGANIZATION_ROLE ( 'creator' ) ;
#266 = PERSON_AND_ORGANIZATION_ROLE ( 'classification_officer' ) ;
#267 = PERSON_AND_ORGANIZATION ( #311, #274 ) ;
#268 = DATE_TIME_ROLE ( 'classification_date' ) ;
#269 = APPROVAL_ROLE ( '' ) ;
#270 = PERSON_AND_ORGANIZATION ( #311, #274 ) ;
#271 =( GEOMETRIC_REPRESENTATION_CONTEXT ( 3 ) GLOBAL_UNCERTAINTY_ASSIGNED_CONTEXT ( ( #313 ) ) GLOBAL_UNIT_ASSIGNED_CONTEXT ( ( #231, #232, #234 ) ) REPRESENTATION_CONTEXT ( 'NONE', 'WORKASPACE' ) );
#272 = CYLINDRICAL_SURFACE ( 'NONE', #303, 9.750000000000000000 ) ;
#273 = FACE_OUTER_BOUND ( 'NONE', #134, .T. ) ;
#274 = ORGANIZATION ( 'UNSPECIFIED', 'UNSPECIFIED', '' ) ;
#275 = VECTOR ( 'NONE', #143, 1000.000000000000000 ) ;
#276 = AXIS2_PLACEMENT_3D ( 'NONE', #157, #162, #155 ) ;
#277 = AXIS2_PLACEMENT_3D ( 'NONE', #174, #167, #160 ) ;
#278 = CALENDAR_DATE ( 2012, 5, 4 ) ;
#279 = CALENDAR_DATE ( 2012, 5, 4 ) ;
#280 = APPROVAL_PERSON_ORGANIZATION ( #270, #354, #269 ) ;
#281 = CC_DESIGN_APPROVAL ( #322, ( #288 ) ) ;
#282 = CC_DESIGN_APPROVAL ( #354, ( #301 ) ) ;
#283 = VECTOR ( 'NONE', #165, 1000.000000000000000 ) ;
#284 = APPROVAL_PERSON_ORGANIZATION ( #255, #322, #260 ) ;
#285 = FACE_BOUND ( 'NONE', #37, .T. ) ;
#286 = AXIS2_PLACEMENT_3D ( 'NONE', #58, #55, #57 ) ;
#287 = FACE_OUTER_BOUND ( 'NONE', #135, .T. ) ;
#288 = PRODUCT_DEFINITION_FORMATION_WITH_SPECIFIED_SOURCE ( 'ANY', '', #227, .NOT_KNOWN. ) ;
#289 = CALENDAR_DATE ( 2012, 5, 4 ) ;
#290 = AXIS2_PLACEMENT_3D ( 'NONE', #49, #48, #53 ) ;
#291 = AXIS2_PLACEMENT_3D ( 'NONE', #66, #64, #63 ) ;
#292 = COORDINATED_UNIVERSAL_TIME_OFFSET ( 5, 0, .BEHIND. ) ;
#293 = FACE_OUTER_BOUND ( 'NONE', #128, .T. ) ;
#294 = AXIS2_PLACEMENT_3D ( 'NONE', #133, #79, #158 ) ;
#295 = CC_DESIGN_SECURITY_CLASSIFICATION ( #301, ( #288 ) ) ;
#296 = COORDINATED_UNIVERSAL_TIME_OFFSET ( 5, 0, .BEHIND. ) ;
#297 = AXIS2_PLACEMENT_3D ( 'NONE', #161, #51, #47 ) ;
#298 = COORDINATED_UNIVERSAL_TIME_OFFSET ( 5, 0, .BEHIND. ) ;
#299 = APPROVAL_PERSON_ORGANIZATION ( #249, #362, #248 ) ;
#300 = COORDINATED_UNIVERSAL_TIME_OFFSET ( 5, 0, .BEHIND. ) ;
#301 = SECURITY_CLASSIFICATION ( '', '', #257 ) ;
#302 = CALENDAR_DATE ( 2012, 5, 4 ) ;
#303 = AXIS2_PLACEMENT_3D ( 'NONE', #61, #59, #60 ) ;
#304 = CALENDAR_DATE ( 2012, 5, 4 ) ;
#305 = AXIS2_PLACEMENT_3D ( 'NONE', #52, #56, #54 ) ;
#306 = VECTOR ( 'NONE', #163, 1000.000000000000100 ) ;
#307 = AXIS2_PLACEMENT_3D ( 'NONE', #67, #62, #65 ) ;
#308 = COORDINATED_UNIVERSAL_TIME_OFFSET ( 5, 0, .BEHIND. ) ;
#309 = CC_DESIGN_APPROVAL ( #362, ( #349 ) ) ;
#310 = AXIS2_PLACEMENT_3D ( 'NONE', #237, #236, #235 ) ;
#311 = PERSON ( 'UNSPECIFIED', 'UNSPECIFIED', 'UNSPECIFIED', ('UNSPECIFIED'), ('UNSPECIFIED'), ('UNSPECIFIED') ) ;
#312 = ADVANCED_BREP_SHAPE_REPRESENTATION ( 'WDS-600-207', ( #229, #310 ), #271 ) ;
#313 = UNCERTAINTY_MEASURE_WITH_UNIT (LENGTH_MEASURE( 1.000000000000000100E-005 ), #231, 'distance_accuracy_value', 'NONE');
#314 = LOCAL_TIME ( 9, 15, 14.00000000000000000, #308 ) ;
#315 = ADVANCED_FACE ( 'NONE', ( #205 ), #206, .F. ) ;
#316 = EDGE_CURVE ( 'NONE', #171, #172, #357, .T. ) ;
#317 = CC_DESIGN_PERSON_AND_ORGANIZATION_ASSIGNMENT ( #264, #266, ( #301 ) ) ;
#318 = EDGE_CURVE ( 'NONE', #187, #169, #319, .T. ) ;
#319 = CIRCLE ( 'NONE', #219, 17.50000000000000400 ) ;
#320 = EDGE_CURVE ( 'NONE', #151, #187, #152, .T. ) ;
#321 = EDGE_CURVE ( 'NONE', #175, #185, #341, .T. ) ;
#322 = APPROVAL ( #256, 'UNSPECIFIED' ) ;
#323 = EDGE_CURVE ( 'NONE', #7, #107, #366, .T. ) ;
#324 = EDGE_CURVE ( 'NONE', #38, #94, #371, .T. ) ;
#325 = ADVANCED_FACE ( 'NONE', ( #203, #225 ), #182, .T. ) ;
#326 = EDGE_CURVE ( 'NONE', #185, #175, #331, .T. ) ;
#327 = CIRCLE ( 'NONE', #305, 6.500000000000000900 ) ;
#328 = CIRCLE ( 'NONE', #291, 6.500000000000000900 ) ;
#329 = EDGE_CURVE ( 'NONE', #151, #186, #334, .T. ) ;
#330 = CIRCLE ( 'NONE', #286, 17.50000000000000400 ) ;
#331 = CIRCLE ( 'NONE', #216, 17.50000000000000400 ) ;
#332 = ADVANCED_FACE ( 'NONE', ( #224 ), #214, .T. ) ;
#333 = ADVANCED_FACE ( 'NONE', ( #217 ), #195, .F. ) ;
#334 = CIRCLE ( 'NONE', #215, 17.00000000000000700 ) ;
#335 = ADVANCED_FACE ( 'NONE', ( #208 ), #210, .F. ) ;
#336 = EDGE_CURVE ( 'NONE', #175, #169, #6, .T. ) ;
#337 = LOCAL_TIME ( 9, 15, 14.00000000000000000, #300 ) ;
#338 = ADVANCED_FACE ( 'NONE', ( #193 ), #374, .T. ) ;
#339 = PRODUCT_RELATED_PRODUCT_CATEGORY ( 'detail', '', ( #227 ) ) ;
#340 = EDGE_CURVE ( 'NONE', #186, #151, #375, .T. ) ;
#341 = CIRCLE ( 'NONE', #223, 17.50000000000000400 ) ;
#342 = EDGE_CURVE ( 'NONE', #108, #7, #5, .T. ) ;
#343 = CC_DESIGN_DATE_AND_TIME_ASSIGNMENT ( #238, #268, ( #301 ) ) ;
#344 = CC_DESIGN_PERSON_AND_ORGANIZATION_ASSIGNMENT ( #254, #252, ( #349 ) ) ;
#345 = CC_DESIGN_PERSON_AND_ORGANIZATION_ASSIGNMENT ( #242, #245, ( #227 ) ) ;
#346 = EDGE_CURVE ( 'NONE', #172, #38, #45, .T. ) ;
#347 = EDGE_CURVE ( 'NONE', #40, #107, #32, .T. ) ;
#348 = CONICAL_SURFACE ( 'NONE', #307, 17.00000000000000700, 0.7853981633974379500 ) ;
#349 = PRODUCT_DEFINITION ( 'UNKNOWN', '', #288, #228 ) ;
#350 = ADVANCED_FACE ( 'NONE', ( #204 ), #191, .T. ) ;
#351 = CC_DESIGN_PERSON_AND_ORGANIZATION_ASSIGNMENT ( #263, #265, ( #288 ) ) ;
#352 = LOCAL_TIME ( 9, 15, 14.00000000000000000, #292 ) ;
#353 = EDGE_CURVE ( 'NONE', #185, #187, #188, .T. ) ;
#354 = APPROVAL ( #239, 'UNSPECIFIED' ) ;
#355 = LOCAL_TIME ( 9, 15, 14.00000000000000000, #298 ) ;
#356 = EDGE_CURVE ( 'NONE', #107, #7, #379, .T. ) ;
#357 = CIRCLE ( 'NONE', #202, 6.500000000000000900 ) ;
#358 = LOCAL_TIME ( 9, 15, 14.00000000000000000, #296 ) ;
#359 = ADVANCED_FACE ( 'NONE', ( #199, #211 ), #156, .F. ) ;
#360 = EDGE_CURVE ( 'NONE', #186, #169, #153, .T. ) ;
#361 = CIRCLE ( 'NONE', #277, 9.750000000000000000 ) ;
#362 = APPROVAL ( #251, 'UNSPECIFIED' ) ;
#363 = CC_DESIGN_PERSON_AND_ORGANIZATION_ASSIGNMENT ( #267, #261, ( #288 ) ) ;
#364 = EDGE_CURVE ( 'NONE', #40, #108, #361, .T. ) ;
#365 = CC_DESIGN_DATE_AND_TIME_ASSIGNMENT ( #253, #258, ( #349 ) ) ;
#366 = CIRCLE ( 'NONE', #201, 9.750000000000000000 ) ;
#367 = EDGE_CURVE ( 'NONE', #171, #94, #168, .T. ) ;
#368 = EDGE_CURVE ( 'NONE', #108, #40, #376, .T. ) ;
#369 = ADVANCED_FACE ( 'NONE', ( #293, #285 ), #50, .T. ) ;
#370 = EDGE_CURVE ( 'NONE', #94, #38, #327, .T. ) ;
#371 = CIRCLE ( 'NONE', #213, 6.500000000000000900 ) ;
#372 = EDGE_CURVE ( 'NONE', #169, #187, #330, .T. ) ;
#373 = ADVANCED_FACE ( 'NONE', ( #273 ), #272, .F. ) ;
#374 = CONICAL_SURFACE ( 'NONE', #226, 17.00000000000000700, 0.7853981633974379500 ) ;
#375 = CIRCLE ( 'NONE', #222, 17.00000000000000700 ) ;
#376 = CIRCLE ( 'NONE', #297, 9.750000000000000000 ) ;
#377 = EDGE_CURVE ( 'NONE', #172, #171, #328, .T. ) ;
#378 = ADVANCED_FACE ( 'NONE', ( #287 ), #348, .T. ) ;
#379 = CIRCLE ( 'NONE', #294, 9.750000000000000000 ) ;
ENDSEC;
END-ISO-10303-21;
