ISO-10303-21;
HEADER;
FILE_DESCRIPTION (( 'STEP AP203' ),
    '1' );
FILE_NAME ('WDS-600-2055.step',
    '2012-04-05T13:14:02',
    ( 'SysAdmin' ),
    ( 'SolidWorks' ),
    'SwSTEP 2.0',
    'SolidWorks 2012',
    '' );
FILE_SCHEMA (( 'CONFIG_CONTROL_DESIGN' ));
ENDSEC;

DATA;
#1 = ADVANCED_FACE ( 'NONE', ( #252 ), #253, .T. ) ;
#2 = EDGE_CURVE ( 'NONE', #91, #93, #251, .T. ) ;
#3 = ORIENTED_EDGE ( 'NONE', *, *, #5, .F. ) ;
#4 = EDGE_LOOP ( 'NONE', ( #15, #16, #59, #61 ) ) ;
#5 = EDGE_CURVE ( 'NONE', #96, #92, #239, .T. ) ;
#6 = VERTEX_POINT ( 'NONE', #242 ) ;
#7 = ORIENTED_EDGE ( 'NONE', *, *, #85, .T. ) ;
#8 = EDGE_CURVE ( 'NONE', #92, #93, #241, .T. ) ;
#9 = EDGE_LOOP ( 'NONE', ( #99, #98, #10, #3 ) ) ;
#10 = ORIENTED_EDGE ( 'NONE', *, *, #8, .F. ) ;
#11 = ORIENTED_EDGE ( 'NONE', *, *, #69, .F. ) ;
#12 = VERTEX_POINT ( 'NONE', #240 ) ;
#13 = EDGE_CURVE ( 'NONE', #102, #86, #250, .T. ) ;
#14 = EDGE_CURVE ( 'NONE', #102, #107, #234, .T. ) ;
#15 = ORIENTED_EDGE ( 'NONE', *, *, #13, .F. ) ;
#16 = ORIENTED_EDGE ( 'NONE', *, *, #14, .T. ) ;
#17 = EDGE_CURVE ( 'NONE', #95, #96, #221, .T. ) ;
#18 = VERTEX_POINT ( 'NONE', #276 ) ;
#19 = EDGE_LOOP ( 'NONE', ( #11, #68, #67, #89 ) ) ;
#20 = EDGE_LOOP ( 'NONE', ( #46, #54, #52, #22 ) ) ;
#21 = EDGE_CURVE ( 'NONE', #18, #107, #272, .T. ) ;
#22 = ORIENTED_EDGE ( 'NONE', *, *, #55, .T. ) ;
#23 = ORIENTED_EDGE ( 'NONE', *, *, #21, .F. ) ;
#24 = ORIENTED_EDGE ( 'NONE', *, *, #105, .F. ) ;
#25 = ORIENTED_EDGE ( 'NONE', *, *, #51, .F. ) ;
#26 = ADVANCED_FACE ( 'NONE', ( #235, #277 ), #265, .F. ) ;
#27 = ORIENTED_EDGE ( 'NONE', *, *, #85, .F. ) ;
#28 = ORIENTED_EDGE ( 'NONE', *, *, #17, .T. ) ;
#29 = ORIENTED_EDGE ( 'NONE', *, *, #32, .T. ) ;
#30 = EDGE_LOOP ( 'NONE', ( #29, #28 ) ) ;
#31 = ADVANCED_FACE ( 'NONE', ( #220, #263 ), #264, .T. ) ;
#32 = EDGE_CURVE ( 'NONE', #96, #95, #258, .T. ) ;
#33 = ORIENTED_EDGE ( 'NONE', *, *, #71, .F. ) ;
#34 = ADVANCED_FACE ( 'NONE', ( #259 ), #290, .T. ) ;
#35 = EDGE_CURVE ( 'NONE', #12, #65, #283, .T. ) ;
#36 = EDGE_LOOP ( 'NONE', ( #42, #43 ) ) ;
#37 = ORIENTED_EDGE ( 'NONE', *, *, #32, .F. ) ;
#38 = ORIENTED_EDGE ( 'NONE', *, *, #55, .F. ) ;
#39 = ORIENTED_EDGE ( 'NONE', *, *, #35, .F. ) ;
#40 = ORIENTED_EDGE ( 'NONE', *, *, #69, .T. ) ;
#41 = ORIENTED_EDGE ( 'NONE', *, *, #72, .F. ) ;
#42 = ORIENTED_EDGE ( 'NONE', *, *, #104, .T. ) ;
#43 = ORIENTED_EDGE ( 'NONE', *, *, #13, .T. ) ;
#44 = ORIENTED_EDGE ( 'NONE', *, *, #48, .T. ) ;
#45 = ADVANCED_FACE ( 'NONE', ( #285 ), #213, .T. ) ;
#46 = ORIENTED_EDGE ( 'NONE', *, *, #84, .F. ) ;
#47 = ORIENTED_EDGE ( 'NONE', *, *, #48, .F. ) ;
#48 = EDGE_CURVE ( 'NONE', #6, #66, #284, .T. ) ;
#49 = EDGE_LOOP ( 'NONE', ( #100, #37, #76, #38 ) ) ;
#50 = EDGE_LOOP ( 'NONE', ( #23, #24 ) ) ;
#51 = EDGE_CURVE ( 'NONE', #82, #91, #202, .T. ) ;
#52 = ORIENTED_EDGE ( 'NONE', *, *, #2, .T. ) ;
#53 = EDGE_LOOP ( 'NONE', ( #27, #25 ) ) ;
#54 = ORIENTED_EDGE ( 'NONE', *, *, #51, .T. ) ;
#55 = EDGE_CURVE ( 'NONE', #93, #92, #207, .T. ) ;
#56 = MANIFOLD_SOLID_BREP ( 'Cut-Extrude3', #80 ) ;
#57 = EDGE_CURVE ( 'NONE', #95, #93, #192, .T. ) ;
#58 = ORIENTED_EDGE ( 'NONE', *, *, #8, .T. ) ;
#59 = ORIENTED_EDGE ( 'NONE', *, *, #105, .T. ) ;
#60 = EDGE_CURVE ( 'NONE', #86, #18, #194, .T. ) ;
#61 = ORIENTED_EDGE ( 'NONE', *, *, #60, .F. ) ;
#62 = ADVANCED_FACE ( 'NONE', ( #300 ), #208, .F. ) ;
#63 = ORIENTED_EDGE ( 'NONE', *, *, #104, .F. ) ;
#64 = ORIENTED_EDGE ( 'NONE', *, *, #60, .T. ) ;
#65 = VERTEX_POINT ( 'NONE', #187 ) ;
#66 = VERTEX_POINT ( 'NONE', #180 ) ;
#67 = ORIENTED_EDGE ( 'NONE', *, *, #71, .T. ) ;
#68 = ORIENTED_EDGE ( 'NONE', *, *, #72, .T. ) ;
#69 = EDGE_CURVE ( 'NONE', #65, #12, #175, .T. ) ;
#70 = ADVANCED_FACE ( 'NONE', ( #181 ), #177, .F. ) ;
#71 = EDGE_CURVE ( 'NONE', #66, #6, #134, .T. ) ;
#72 = EDGE_CURVE ( 'NONE', #65, #66, #179, .T. ) ;
#73 = EDGE_LOOP ( 'NONE', ( #75, #40 ) ) ;
#74 = ADVANCED_FACE ( 'NONE', ( #170, #135 ), #176, .T. ) ;
#75 = ORIENTED_EDGE ( 'NONE', *, *, #35, .T. ) ;
#76 = ORIENTED_EDGE ( 'NONE', *, *, #5, .T. ) ;
#77 = ADVANCED_FACE ( 'NONE', ( #167 ), #130, .F. ) ;
#78 = ORIENTED_EDGE ( 'NONE', *, *, #90, .T. ) ;
#79 = EDGE_LOOP ( 'NONE', ( #41, #39, #78, #44 ) ) ;
#80 = CLOSED_SHELL ( 'NONE', ( #70, #97, #1, #103, #62, #34, #26, #31, #45, #74, #77 ) ) ;
#81 = EDGE_LOOP ( 'NONE', ( #47, #33 ) ) ;
#82 = VERTEX_POINT ( 'NONE', #119 ) ;
#83 = ORIENTED_EDGE ( 'NONE', *, *, #84, .T. ) ;
#84 = EDGE_CURVE ( 'NONE', #82, #92, #115, .T. ) ;
#85 = EDGE_CURVE ( 'NONE', #91, #82, #116, .T. ) ;
#86 = VERTEX_POINT ( 'NONE', #111 ) ;
#87 = EDGE_LOOP ( 'NONE', ( #94, #63, #64, #101 ) ) ;
#88 = EDGE_LOOP ( 'NONE', ( #7, #83, #58, #106 ) ) ;
#89 = ORIENTED_EDGE ( 'NONE', *, *, #90, .F. ) ;
#90 = EDGE_CURVE ( 'NONE', #12, #6, #162, .T. ) ;
#91 = VERTEX_POINT ( 'NONE', #110 ) ;
#92 = VERTEX_POINT ( 'NONE', #126 ) ;
#93 = VERTEX_POINT ( 'NONE', #158 ) ;
#94 = ORIENTED_EDGE ( 'NONE', *, *, #14, .F. ) ;
#95 = VERTEX_POINT ( 'NONE', #164 ) ;
#96 = VERTEX_POINT ( 'NONE', #155 ) ;
#97 = ADVANCED_FACE ( 'NONE', ( #154 ), #157, .T. ) ;
#98 = ORIENTED_EDGE ( 'NONE', *, *, #57, .T. ) ;
#99 = ORIENTED_EDGE ( 'NONE', *, *, #17, .F. ) ;
#100 = ORIENTED_EDGE ( 'NONE', *, *, #57, .F. ) ;
#101 = ORIENTED_EDGE ( 'NONE', *, *, #21, .T. ) ;
#102 = VERTEX_POINT ( 'NONE', #151 ) ;
#103 = ADVANCED_FACE ( 'NONE', ( #150 ), #153, .F. ) ;
#104 = EDGE_CURVE ( 'NONE', #86, #102, #140, .T. ) ;
#105 = EDGE_CURVE ( 'NONE', #107, #18, #149, .T. ) ;
#106 = ORIENTED_EDGE ( 'NONE', *, *, #2, .F. ) ;
#107 = VERTEX_POINT ( 'NONE', #144 ) ;
#108 = DIRECTION ( 'NONE',  ( 0.0000000000000000000, 0.0000000000000000000, 1.000000000000000000 ) ) ;
#109 = CARTESIAN_POINT ( 'NONE',  ( 0.0000000000000000000, 0.0000000000000000000, -18.00000000000000000 ) ) ;
#110 = CARTESIAN_POINT ( 'NONE',  ( 12.50000000000000000, 0.0000000000000000000, -18.00000000000000000 ) ) ;
#111 = CARTESIAN_POINT ( 'NONE',  ( -4.250000000000000000, 0.0000000000000000000, -9.000000000000000000 ) ) ;
#112 = DIRECTION ( 'NONE',  ( 0.0000000000000000000, 0.0000000000000000000, 1.000000000000000000 ) ) ;
#113 = VECTOR ( 'NONE', #112, 1000.000000000000000 ) ;
#114 = CARTESIAN_POINT ( 'NONE',  ( -12.50000000000000000, 1.530808498934191500E-015, -18.00000000000000000 ) ) ;
#115 = LINE ( 'NONE', #114, #113 ) ;
#116 = CIRCLE ( 'NONE', #178, 12.50000000000000000 ) ;
#117 = DIRECTION ( 'NONE',  ( 1.000000000000000000, 0.0000000000000000000, 0.0000000000000000000 ) ) ;
#118 = DIRECTION ( 'NONE',  ( -0.0000000000000000000, -0.0000000000000000000, 1.000000000000000000 ) ) ;
#119 = CARTESIAN_POINT ( 'NONE',  ( -12.50000000000000000, 1.530808498934191500E-015, -18.00000000000000000 ) ) ;
#120 = AXIS2_PLACEMENT_3D ( 'NONE', #163, #148, #147 ) ;
#121 = CARTESIAN_POINT ( 'NONE',  ( 0.0000000000000000000, 0.0000000000000000000, -9.000000000000000000 ) ) ;
#122 = DIRECTION ( 'NONE',  ( 1.000000000000000000, 0.0000000000000000000, -0.0000000000000000000 ) ) ;
#123 = DIRECTION ( 'NONE',  ( 0.0000000000000000000, 0.0000000000000000000, 1.000000000000000000 ) ) ;
#124 = CARTESIAN_POINT ( 'NONE',  ( 0.0000000000000000000, 0.0000000000000000000, -9.000000000000000000 ) ) ;
#125 = AXIS2_PLACEMENT_3D ( 'NONE', #124, #123, #122 ) ;
#126 = CARTESIAN_POINT ( 'NONE',  ( -12.50000000000000000, 1.530808498934191500E-015, -0.5000000000000038900 ) ) ;
#127 = DIRECTION ( 'NONE',  ( -0.0000000000000000000, -0.0000000000000000000, 1.000000000000000000 ) ) ;
#128 = VECTOR ( 'NONE', #127, 1000.000000000000000 ) ;
#129 = CARTESIAN_POINT ( 'NONE',  ( -7.000000000000000000, 8.572527594031473200E-016, -9.000000000000000000 ) ) ;
#130 = CYLINDRICAL_SURFACE ( 'NONE', #166, 7.000000000000000000 ) ;
#131 = DIRECTION ( 'NONE',  ( 1.000000000000000000, 0.0000000000000000000, 0.0000000000000000000 ) ) ;
#132 = DIRECTION ( 'NONE',  ( 0.0000000000000000000, 0.0000000000000000000, 1.000000000000000000 ) ) ;
#133 = CARTESIAN_POINT ( 'NONE',  ( 0.0000000000000000000, 0.0000000000000000000, 0.0000000000000000000 ) ) ;
#134 = CIRCLE ( 'NONE', #288, 7.000000000000000000 ) ;
#135 = FACE_BOUND ( 'NONE', #36, .T. ) ;
#136 = DIRECTION ( 'NONE',  ( 1.000000000000000000, 0.0000000000000000000, 0.0000000000000000000 ) ) ;
#137 = DIRECTION ( 'NONE',  ( -0.0000000000000000000, -0.0000000000000000000, -1.000000000000000000 ) ) ;
#138 = CARTESIAN_POINT ( 'NONE',  ( 0.0000000000000000000, 0.0000000000000000000, -9.000000000000000000 ) ) ;
#139 = AXIS2_PLACEMENT_3D ( 'NONE', #138, #137, #136 ) ;
#140 = CIRCLE ( 'NONE', #139, 4.250000000000000000 ) ;
#141 = DIRECTION ( 'NONE',  ( -1.000000000000000000, 0.0000000000000000000, 0.0000000000000000000 ) ) ;
#142 = DIRECTION ( 'NONE',  ( -0.0000000000000000000, -0.0000000000000000000, -1.000000000000000000 ) ) ;
#143 = CARTESIAN_POINT ( 'NONE',  ( 0.0000000000000000000, 0.0000000000000000000, -18.00000000000000000 ) ) ;
#144 = CARTESIAN_POINT ( 'NONE',  ( 4.250000000000000000, 5.204748896376250700E-016, -18.00000000000000000 ) ) ;
#145 = AXIS2_PLACEMENT_3D ( 'NONE', #218, #217, #219 ) ;
#146 = AXIS2_PLACEMENT_3D ( 'NONE', #143, #201, #200 ) ;
#147 = DIRECTION ( 'NONE',  ( -1.000000000000000000, 0.0000000000000000000, 0.0000000000000000000 ) ) ;
#148 = DIRECTION ( 'NONE',  ( 0.0000000000000000000, 0.0000000000000000000, -1.000000000000000000 ) ) ;
#149 = CIRCLE ( 'NONE', #146, 4.250000000000000000 ) ;
#150 = FACE_OUTER_BOUND ( 'NONE', #4, .T. ) ;
#151 = CARTESIAN_POINT ( 'NONE',  ( 4.250000000000000000, 5.204748896376250700E-016, -9.000000000000000000 ) ) ;
#152 = CARTESIAN_POINT ( 'NONE',  ( 0.0000000000000000000, 0.0000000000000000000, 0.001000000000001000100 ) ) ;
#153 = CYLINDRICAL_SURFACE ( 'NONE', #156, 4.250000000000000000 ) ;
#154 = FACE_OUTER_BOUND ( 'NONE', #9, .T. ) ;
#155 = CARTESIAN_POINT ( 'NONE',  ( -12.00000000000000000, 0.0000000000000000000, 0.0000000000000000000 ) ) ;
#156 = AXIS2_PLACEMENT_3D ( 'NONE', #152, #142, #141 ) ;
#157 = CONICAL_SURFACE ( 'NONE', #120, 12.00000000000000000, 0.7853981633974447300 ) ;
#158 = CARTESIAN_POINT ( 'NONE',  ( 12.50000000000000000, 0.0000000000000000000, -0.5000000000000038900 ) ) ;
#159 = DIRECTION ( 'NONE',  ( -0.0000000000000000000, -0.0000000000000000000, 1.000000000000000000 ) ) ;
#160 = VECTOR ( 'NONE', #159, 1000.000000000000000 ) ;
#161 = CARTESIAN_POINT ( 'NONE',  ( 7.000000000000000000, 0.0000000000000000000, -9.000000000000000000 ) ) ;
#162 = LINE ( 'NONE', #161, #160 ) ;
#163 = CARTESIAN_POINT ( 'NONE',  ( 0.0000000000000000000, 0.0000000000000000000, 0.0000000000000000000 ) ) ;
#164 = CARTESIAN_POINT ( 'NONE',  ( 12.00000000000000000, 1.500192328955507700E-015, 0.0000000000000000000 ) ) ;
#165 = DIRECTION ( 'NONE',  ( 1.000000000000000000, 0.0000000000000000000, 0.0000000000000000000 ) ) ;
#166 = AXIS2_PLACEMENT_3D ( 'NONE', #121, #118, #117 ) ;
#167 = FACE_OUTER_BOUND ( 'NONE', #79, .T. ) ;
#168 = DIRECTION ( 'NONE',  ( 1.000000000000000000, 0.0000000000000000000, 0.0000000000000000000 ) ) ;
#169 = AXIS2_PLACEMENT_3D ( 'NONE', #299, #193, #168 ) ;
#170 = FACE_OUTER_BOUND ( 'NONE', #73, .T. ) ;
#171 = DIRECTION ( 'NONE',  ( 1.000000000000000000, 0.0000000000000000000, 0.0000000000000000000 ) ) ;
#172 = DIRECTION ( 'NONE',  ( 0.0000000000000000000, 0.0000000000000000000, 1.000000000000000000 ) ) ;
#173 = CARTESIAN_POINT ( 'NONE',  ( 0.0000000000000000000, 0.0000000000000000000, -9.000000000000000000 ) ) ;
#174 = AXIS2_PLACEMENT_3D ( 'NONE', #173, #172, #171 ) ;
#175 = CIRCLE ( 'NONE', #174, 7.000000000000000000 ) ;
#176 = PLANE ( 'NONE',  #125 ) ;
#177 = CYLINDRICAL_SURFACE ( 'NONE', #169, 7.000000000000000000 ) ;
#178 = AXIS2_PLACEMENT_3D ( 'NONE', #109, #108, #165 ) ;
#179 = LINE ( 'NONE', #129, #128 ) ;
#180 = CARTESIAN_POINT ( 'NONE',  ( -7.000000000000000000, 8.572527594031473200E-016, 0.0000000000000000000 ) ) ;
#181 = FACE_OUTER_BOUND ( 'NONE', #19, .T. ) ;
#182 = CARTESIAN_POINT ( 'NONE',  ( 0.0000000000000000000, 0.0000000000000000000, 0.001000000000001000100 ) ) ;
#183 = DIRECTION ( 'NONE',  ( -1.000000000000000000, 0.0000000000000000000, 0.0000000000000000000 ) ) ;
#184 = DIRECTION ( 'NONE',  ( -0.0000000000000000000, -0.0000000000000000000, -1.000000000000000000 ) ) ;
#185 = DIRECTION ( 'NONE',  ( -0.0000000000000000000, -0.0000000000000000000, -1.000000000000000000 ) ) ;
#186 = VECTOR ( 'NONE', #185, 1000.000000000000000 ) ;
#187 = CARTESIAN_POINT ( 'NONE',  ( -7.000000000000000000, 8.572527594031473200E-016, -9.000000000000000000 ) ) ;
#188 = AXIS2_PLACEMENT_3D ( 'NONE', #182, #184, #183 ) ;
#189 = DIRECTION ( 'NONE',  ( 0.7071067811865451300, 8.659560562354903300E-017, -0.7071067811865500200 ) ) ;
#190 = VECTOR ( 'NONE', #189, 1000.000000000000100 ) ;
#191 = CARTESIAN_POINT ( 'NONE',  ( 12.00000000000000000, 1.469576158976823900E-015, 0.0000000000000000000 ) ) ;
#192 = LINE ( 'NONE', #191, #190 ) ;
#193 = DIRECTION ( 'NONE',  ( -0.0000000000000000000, -0.0000000000000000000, 1.000000000000000000 ) ) ;
#194 = LINE ( 'NONE', #278, #186 ) ;
#195 = ADVANCED_BREP_SHAPE_REPRESENTATION ( 'WDS-600-2055', ( #56, #145 ), #196 ) ;
#196 =( GEOMETRIC_REPRESENTATION_CONTEXT ( 3 ) GLOBAL_UNCERTAINTY_ASSIGNED_CONTEXT ( ( #197 ) ) GLOBAL_UNIT_ASSIGNED_CONTEXT ( ( #214, #199, #198 ) ) REPRESENTATION_CONTEXT ( 'NONE', 'WORKASPACE' ) );
#197 = UNCERTAINTY_MEASURE_WITH_UNIT (LENGTH_MEASURE( 1.000000000000000100E-005 ), #214, 'distance_accuracy_value', 'NONE');
#198 =( NAMED_UNIT ( * ) SI_UNIT ( $, .STERADIAN. ) SOLID_ANGLE_UNIT ( ) );
#199 =( NAMED_UNIT ( * ) PLANE_ANGLE_UNIT ( ) SI_UNIT ( $, .RADIAN. ) );
#200 = DIRECTION ( 'NONE',  ( -1.000000000000000000, 0.0000000000000000000, 0.0000000000000000000 ) ) ;
#201 = DIRECTION ( 'NONE',  ( 0.0000000000000000000, 0.0000000000000000000, -1.000000000000000000 ) ) ;
#202 = CIRCLE ( 'NONE', #294, 12.50000000000000000 ) ;
#203 = DIRECTION ( 'NONE',  ( 1.000000000000000000, 0.0000000000000000000, 0.0000000000000000000 ) ) ;
#204 = DIRECTION ( 'NONE',  ( 0.0000000000000000000, 0.0000000000000000000, 1.000000000000000000 ) ) ;
#205 = CARTESIAN_POINT ( 'NONE',  ( 0.0000000000000000000, 0.0000000000000000000, 0.0000000000000000000 ) ) ;
#206 = AXIS2_PLACEMENT_3D ( 'NONE', #205, #204, #203 ) ;
#207 = CIRCLE ( 'NONE', #298, 12.50000000000000000 ) ;
#208 = CYLINDRICAL_SURFACE ( 'NONE', #188, 4.250000000000000000 ) ;
#209 = CARTESIAN_POINT ( 'NONE',  ( 0.0000000000000000000, 0.0000000000000000000, -18.00000000000000000 ) ) ;
#210 = DIRECTION ( 'NONE',  ( -1.000000000000000000, 0.0000000000000000000, 0.0000000000000000000 ) ) ;
#211 = DIRECTION ( 'NONE',  ( 0.0000000000000000000, 0.0000000000000000000, -1.000000000000000000 ) ) ;
#212 = CARTESIAN_POINT ( 'NONE',  ( 0.0000000000000000000, 0.0000000000000000000, 0.0000000000000000000 ) ) ;
#213 = CONICAL_SURFACE ( 'NONE', #279, 12.00000000000000000, 0.7853981633974447300 ) ;
#214 =( LENGTH_UNIT ( ) NAMED_UNIT ( * ) SI_UNIT ( .MILLI., .METRE. ) );
#215 = AXIS2_PLACEMENT_3D ( 'NONE', #216, #248, #247 ) ;
#216 = CARTESIAN_POINT ( 'NONE',  ( 0.0000000000000000000, 0.0000000000000000000, -18.00000000000000000 ) ) ;
#217 = DIRECTION ( 'NONE',  ( 0.0000000000000000000, 0.0000000000000000000, 1.000000000000000000 ) ) ;
#218 = CARTESIAN_POINT ( 'NONE',  ( 0.0000000000000000000, 0.0000000000000000000, 0.0000000000000000000 ) ) ;
#219 = DIRECTION ( 'NONE',  ( 1.000000000000000000, 0.0000000000000000000, 0.0000000000000000000 ) ) ;
#220 = FACE_BOUND ( 'NONE', #81, .T. ) ;
#221 = CIRCLE ( 'NONE', #225, 12.00000000000000000 ) ;
#222 = DIRECTION ( 'NONE',  ( -0.0000000000000000000, -0.0000000000000000000, -1.000000000000000000 ) ) ;
#223 = VECTOR ( 'NONE', #222, 1000.000000000000000 ) ;
#224 = CARTESIAN_POINT ( 'NONE',  ( 4.250000000000000000, 5.204748896376250700E-016, 0.001000000000001000100 ) ) ;
#225 = AXIS2_PLACEMENT_3D ( 'NONE', #275, #274, #273 ) ;
#226 = DIRECTION ( 'NONE',  ( 1.000000000000000000, 0.0000000000000000000, 0.0000000000000000000 ) ) ;
#227 = DIRECTION ( 'NONE',  ( -0.0000000000000000000, -0.0000000000000000000, -1.000000000000000000 ) ) ;
#228 = CARTESIAN_POINT ( 'NONE',  ( 0.0000000000000000000, 0.0000000000000000000, -9.000000000000000000 ) ) ;
#229 = CARTESIAN_POINT ( 'NONE',  ( 0.0000000000000000000, 0.0000000000000000000, -18.00000000000000000 ) ) ;
#230 = AXIS2_PLACEMENT_3D ( 'NONE', #228, #227, #226 ) ;
#231 = DIRECTION ( 'NONE',  ( 1.000000000000000000, 0.0000000000000000000, 0.0000000000000000000 ) ) ;
#232 = DIRECTION ( 'NONE',  ( 0.0000000000000000000, 0.0000000000000000000, -1.000000000000000000 ) ) ;
#233 = CARTESIAN_POINT ( 'NONE',  ( 0.0000000000000000000, 0.0000000000000000000, -0.5000000000000038900 ) ) ;
#234 = LINE ( 'NONE', #224, #223 ) ;
#235 = FACE_BOUND ( 'NONE', #50, .T. ) ;
#236 = DIRECTION ( 'NONE',  ( -0.7071067811865451300, 0.0000000000000000000, -0.7071067811865500200 ) ) ;
#237 = VECTOR ( 'NONE', #236, 1000.000000000000100 ) ;
#238 = CARTESIAN_POINT ( 'NONE',  ( -12.00000000000000000, 0.0000000000000000000, 0.0000000000000000000 ) ) ;
#239 = LINE ( 'NONE', #238, #237 ) ;
#240 = CARTESIAN_POINT ( 'NONE',  ( 7.000000000000000000, 0.0000000000000000000, -9.000000000000000000 ) ) ;
#241 = CIRCLE ( 'NONE', #246, 12.50000000000000000 ) ;
#242 = CARTESIAN_POINT ( 'NONE',  ( 7.000000000000000000, 0.0000000000000000000, 0.0000000000000000000 ) ) ;
#243 = DIRECTION ( 'NONE',  ( 0.0000000000000000000, 0.0000000000000000000, 1.000000000000000000 ) ) ;
#244 = VECTOR ( 'NONE', #243, 1000.000000000000000 ) ;
#245 = CARTESIAN_POINT ( 'NONE',  ( 12.50000000000000000, 0.0000000000000000000, -18.00000000000000000 ) ) ;
#246 = AXIS2_PLACEMENT_3D ( 'NONE', #233, #232, #231 ) ;
#247 = DIRECTION ( 'NONE',  ( 1.000000000000000000, 0.0000000000000000000, 0.0000000000000000000 ) ) ;
#248 = DIRECTION ( 'NONE',  ( 0.0000000000000000000, 0.0000000000000000000, 1.000000000000000000 ) ) ;
#249 = AXIS2_PLACEMENT_3D ( 'NONE', #268, #267, #266 ) ;
#250 = CIRCLE ( 'NONE', #230, 4.250000000000000000 ) ;
#251 = LINE ( 'NONE', #245, #244 ) ;
#252 = FACE_OUTER_BOUND ( 'NONE', #88, .T. ) ;
#253 = CYLINDRICAL_SURFACE ( 'NONE', #215, 12.50000000000000000 ) ;
#254 = AXIS2_PLACEMENT_3D ( 'NONE', #293, #292, #291 ) ;
#255 = DIRECTION ( 'NONE',  ( 1.000000000000000000, 0.0000000000000000000, -0.0000000000000000000 ) ) ;
#256 = DIRECTION ( 'NONE',  ( 0.0000000000000000000, 0.0000000000000000000, 1.000000000000000000 ) ) ;
#257 = CARTESIAN_POINT ( 'NONE',  ( 0.0000000000000000000, 0.0000000000000000000, 0.0000000000000000000 ) ) ;
#258 = CIRCLE ( 'NONE', #254, 12.00000000000000000 ) ;
#259 = FACE_OUTER_BOUND ( 'NONE', #20, .T. ) ;
#260 = DIRECTION ( 'NONE',  ( 1.000000000000000000, 0.0000000000000000000, -0.0000000000000000000 ) ) ;
#261 = DIRECTION ( 'NONE',  ( 0.0000000000000000000, 0.0000000000000000000, 1.000000000000000000 ) ) ;
#262 = AXIS2_PLACEMENT_3D ( 'NONE', #257, #256, #255 ) ;
#263 = FACE_OUTER_BOUND ( 'NONE', #30, .T. ) ;
#264 = PLANE ( 'NONE',  #262 ) ;
#265 = PLANE ( 'NONE',  #269 ) ;
#266 = DIRECTION ( 'NONE',  ( -1.000000000000000000, 0.0000000000000000000, 0.0000000000000000000 ) ) ;
#267 = DIRECTION ( 'NONE',  ( 0.0000000000000000000, 0.0000000000000000000, -1.000000000000000000 ) ) ;
#268 = CARTESIAN_POINT ( 'NONE',  ( 0.0000000000000000000, 0.0000000000000000000, -18.00000000000000000 ) ) ;
#269 = AXIS2_PLACEMENT_3D ( 'NONE', #229, #261, #260 ) ;
#270 = CARTESIAN_POINT ( 'NONE',  ( 0.0000000000000000000, 0.0000000000000000000, -18.00000000000000000 ) ) ;
#271 = AXIS2_PLACEMENT_3D ( 'NONE', #282, #281, #280 ) ;
#272 = CIRCLE ( 'NONE', #249, 4.250000000000000000 ) ;
#273 = DIRECTION ( 'NONE',  ( 1.000000000000000000, 0.0000000000000000000, 0.0000000000000000000 ) ) ;
#274 = DIRECTION ( 'NONE',  ( 0.0000000000000000000, 0.0000000000000000000, 1.000000000000000000 ) ) ;
#275 = CARTESIAN_POINT ( 'NONE',  ( 0.0000000000000000000, 0.0000000000000000000, 0.0000000000000000000 ) ) ;
#276 = CARTESIAN_POINT ( 'NONE',  ( -4.250000000000000000, 0.0000000000000000000, -18.00000000000000000 ) ) ;
#277 = FACE_OUTER_BOUND ( 'NONE', #53, .T. ) ;
#278 = CARTESIAN_POINT ( 'NONE',  ( -4.250000000000000000, 0.0000000000000000000, 0.001000000000001000100 ) ) ;
#279 = AXIS2_PLACEMENT_3D ( 'NONE', #212, #211, #210 ) ;
#280 = DIRECTION ( 'NONE',  ( 1.000000000000000000, 0.0000000000000000000, 0.0000000000000000000 ) ) ;
#281 = DIRECTION ( 'NONE',  ( 0.0000000000000000000, 0.0000000000000000000, 1.000000000000000000 ) ) ;
#282 = CARTESIAN_POINT ( 'NONE',  ( 0.0000000000000000000, 0.0000000000000000000, -9.000000000000000000 ) ) ;
#283 = CIRCLE ( 'NONE', #271, 7.000000000000000000 ) ;
#284 = CIRCLE ( 'NONE', #206, 7.000000000000000000 ) ;
#285 = FACE_OUTER_BOUND ( 'NONE', #49, .T. ) ;
#286 = DIRECTION ( 'NONE',  ( 1.000000000000000000, 0.0000000000000000000, 0.0000000000000000000 ) ) ;
#287 = DIRECTION ( 'NONE',  ( 0.0000000000000000000, 0.0000000000000000000, 1.000000000000000000 ) ) ;
#288 = AXIS2_PLACEMENT_3D ( 'NONE', #133, #132, #131 ) ;
#289 = AXIS2_PLACEMENT_3D ( 'NONE', #270, #287, #286 ) ;
#290 = CYLINDRICAL_SURFACE ( 'NONE', #289, 12.50000000000000000 ) ;
#291 = DIRECTION ( 'NONE',  ( 1.000000000000000000, 0.0000000000000000000, 0.0000000000000000000 ) ) ;
#292 = DIRECTION ( 'NONE',  ( 0.0000000000000000000, 0.0000000000000000000, 1.000000000000000000 ) ) ;
#293 = CARTESIAN_POINT ( 'NONE',  ( 0.0000000000000000000, 0.0000000000000000000, 0.0000000000000000000 ) ) ;
#294 = AXIS2_PLACEMENT_3D ( 'NONE', #209, #302, #301 ) ;
#295 = DIRECTION ( 'NONE',  ( 1.000000000000000000, 0.0000000000000000000, 0.0000000000000000000 ) ) ;
#296 = DIRECTION ( 'NONE',  ( 0.0000000000000000000, 0.0000000000000000000, -1.000000000000000000 ) ) ;
#297 = CARTESIAN_POINT ( 'NONE',  ( 0.0000000000000000000, 0.0000000000000000000, -0.5000000000000038900 ) ) ;
#298 = AXIS2_PLACEMENT_3D ( 'NONE', #297, #296, #295 ) ;
#299 = CARTESIAN_POINT ( 'NONE',  ( 0.0000000000000000000, 0.0000000000000000000, -9.000000000000000000 ) ) ;
#300 = FACE_OUTER_BOUND ( 'NONE', #87, .T. ) ;
#301 = DIRECTION ( 'NONE',  ( 1.000000000000000000, 0.0000000000000000000, 0.0000000000000000000 ) ) ;
#302 = DIRECTION ( 'NONE',  ( 0.0000000000000000000, 0.0000000000000000000, 1.000000000000000000 ) ) ;
#303 = CC_DESIGN_PERSON_AND_ORGANIZATION_ASSIGNMENT ( #305, #304, ( #308 ) ) ;
#304 = PERSON_AND_ORGANIZATION_ROLE ( 'design_owner' ) ;
#305 = PERSON_AND_ORGANIZATION ( #307, #306 ) ;
#306 = ORGANIZATION ( 'UNSPECIFIED', 'UNSPECIFIED', '' ) ;
#307 = PERSON ( 'UNSPECIFIED', 'UNSPECIFIED', 'UNSPECIFIED', ('UNSPECIFIED'), ('UNSPECIFIED'), ('UNSPECIFIED') ) ;
#308 = PRODUCT ( 'WDS-600-2055', 'WDS-600-2055', '', ( #309 ) ) ;
#309 = MECHANICAL_CONTEXT ( 'NONE', #312, 'mechanical' ) ;
#310 = APPLICATION_PROTOCOL_DEFINITION ( 'international standard', 'config_control_design', 1994, #312 ) ;
#311 = SHAPE_DEFINITION_REPRESENTATION ( #313, #195 ) ;
#312 = APPLICATION_CONTEXT ( 'configuration controlled 3d designs of mechanical parts and assemblies' ) ;
#313 = PRODUCT_DEFINITION_SHAPE ( 'NONE', 'NONE',  #376 ) ;
#314 = PRODUCT_RELATED_PRODUCT_CATEGORY ( 'detail', '', ( #308 ) ) ;
#315 = CC_DESIGN_SECURITY_CLASSIFICATION ( #336, ( #355 ) ) ;
#316 = CC_DESIGN_APPROVAL ( #324, ( #336 ) ) ;
#317 = APPROVAL_DATE_TIME ( #318, #324 ) ;
#318 = DATE_AND_TIME ( #319, #320 ) ;
#319 = CALENDAR_DATE ( 2012, 5, 4 ) ;
#320 = LOCAL_TIME ( 9, 14, 2.000000000000000000, #321 ) ;
#321 = COORDINATED_UNIVERSAL_TIME_OFFSET ( 5, 0, .BEHIND. ) ;
#322 = APPROVAL_PERSON_ORGANIZATION ( #326, #324, #323 ) ;
#323 = APPROVAL_ROLE ( '' ) ;
#324 = APPROVAL ( #325, 'UNSPECIFIED' ) ;
#325 = APPROVAL_STATUS ( 'not_yet_approved' ) ;
#326 = PERSON_AND_ORGANIZATION ( #307, #306 ) ;
#327 = CC_DESIGN_DATE_AND_TIME_ASSIGNMENT ( #329, #328, ( #336 ) ) ;
#328 = DATE_TIME_ROLE ( 'classification_date' ) ;
#329 = DATE_AND_TIME ( #330, #331 ) ;
#330 = CALENDAR_DATE ( 2012, 5, 4 ) ;
#331 = LOCAL_TIME ( 9, 14, 2.000000000000000000, #332 ) ;
#332 = COORDINATED_UNIVERSAL_TIME_OFFSET ( 5, 0, .BEHIND. ) ;
#333 = CC_DESIGN_PERSON_AND_ORGANIZATION_ASSIGNMENT ( #335, #334, ( #336 ) ) ;
#334 = PERSON_AND_ORGANIZATION_ROLE ( 'classification_officer' ) ;
#335 = PERSON_AND_ORGANIZATION ( #307, #306 ) ;
#336 = SECURITY_CLASSIFICATION ( '', '', #337 ) ;
#337 = SECURITY_CLASSIFICATION_LEVEL ( 'unclassified' ) ;
#338 = CC_DESIGN_PERSON_AND_ORGANIZATION_ASSIGNMENT ( #340, #339, ( #355 ) ) ;
#339 = PERSON_AND_ORGANIZATION_ROLE ( 'design_supplier' ) ;
#340 = PERSON_AND_ORGANIZATION ( #307, #306 ) ;
#341 = CC_DESIGN_PERSON_AND_ORGANIZATION_ASSIGNMENT ( #343, #342, ( #355 ) ) ;
#342 = PERSON_AND_ORGANIZATION_ROLE ( 'creator' ) ;
#343 = PERSON_AND_ORGANIZATION ( #307, #306 ) ;
#344 = CC_DESIGN_APPROVAL ( #352, ( #355 ) ) ;
#345 = APPROVAL_DATE_TIME ( #346, #352 ) ;
#346 = DATE_AND_TIME ( #347, #348 ) ;
#347 = CALENDAR_DATE ( 2012, 5, 4 ) ;
#348 = LOCAL_TIME ( 9, 14, 2.000000000000000000, #349 ) ;
#349 = COORDINATED_UNIVERSAL_TIME_OFFSET ( 5, 0, .BEHIND. ) ;
#350 = APPROVAL_PERSON_ORGANIZATION ( #354, #352, #351 ) ;
#351 = APPROVAL_ROLE ( '' ) ;
#352 = APPROVAL ( #353, 'UNSPECIFIED' ) ;
#353 = APPROVAL_STATUS ( 'not_yet_approved' ) ;
#354 = PERSON_AND_ORGANIZATION ( #307, #306 ) ;
#355 = PRODUCT_DEFINITION_FORMATION_WITH_SPECIFIED_SOURCE ( 'ANY', '', #308, .NOT_KNOWN. ) ;
#356 = CC_DESIGN_DATE_AND_TIME_ASSIGNMENT ( #358, #357, ( #376 ) ) ;
#357 = DATE_TIME_ROLE ( 'creation_date' ) ;
#358 = DATE_AND_TIME ( #359, #360 ) ;
#359 = CALENDAR_DATE ( 2012, 5, 4 ) ;
#360 = LOCAL_TIME ( 9, 14, 2.000000000000000000, #361 ) ;
#361 = COORDINATED_UNIVERSAL_TIME_OFFSET ( 5, 0, .BEHIND. ) ;
#362 = CC_DESIGN_PERSON_AND_ORGANIZATION_ASSIGNMENT ( #364, #363, ( #376 ) ) ;
#363 = PERSON_AND_ORGANIZATION_ROLE ( 'creator' ) ;
#364 = PERSON_AND_ORGANIZATION ( #307, #306 ) ;
#365 = CC_DESIGN_APPROVAL ( #373, ( #376 ) ) ;
#366 = APPROVAL_DATE_TIME ( #367, #373 ) ;
#367 = DATE_AND_TIME ( #368, #369 ) ;
#368 = CALENDAR_DATE ( 2012, 5, 4 ) ;
#369 = LOCAL_TIME ( 9, 14, 2.000000000000000000, #370 ) ;
#370 = COORDINATED_UNIVERSAL_TIME_OFFSET ( 5, 0, .BEHIND. ) ;
#371 = APPROVAL_PERSON_ORGANIZATION ( #375, #373, #372 ) ;
#372 = APPROVAL_ROLE ( '' ) ;
#373 = APPROVAL ( #374, 'UNSPECIFIED' ) ;
#374 = APPROVAL_STATUS ( 'not_yet_approved' ) ;
#375 = PERSON_AND_ORGANIZATION ( #307, #306 ) ;
#376 = PRODUCT_DEFINITION ( 'UNKNOWN', '', #355, #377 ) ;
#377 = DESIGN_CONTEXT ( 'detailed design', #379, 'design' ) ;
#378 = APPLICATION_PROTOCOL_DEFINITION ( 'international standard', 'config_control_design', 1994, #379 ) ;
#379 = APPLICATION_CONTEXT ( 'configuration controlled 3d designs of mechanical parts and assemblies' ) ;
ENDSEC;
END-ISO-10303-21;
