ISO-10303-21;
HEADER;
FILE_DESCRIPTION (( 'STEP AP203' ),
    '1' );
FILE_NAME ('600-205.step',
    '2009-09-23T07:26:45',
    ( 'SysAdmin' ),
    ( 'SolidWorks' ),
    'SwSTEP 2.0',
    'SolidWorks 2009',
    '' );
FILE_SCHEMA (( 'CONFIG_CONTROL_DESIGN' ));
ENDSEC;

DATA;
#1 = EDGE_LOOP ( 'NONE', ( #76, #80, #83, #23 ) ) ;
#2 = EDGE_CURVE ( 'NONE', #15, #29, #141, .T. ) ;
#3 = ORIENTED_EDGE ( 'NONE', *, *, #4, .T. ) ;
#4 = EDGE_CURVE ( 'NONE', #5, #41, #131, .T. ) ;
#5 = VERTEX_POINT ( 'NONE', #138 ) ;
#6 = ORIENTED_EDGE ( 'NONE', *, *, #7, .T. ) ;
#7 = EDGE_CURVE ( 'NONE', #28, #29, #129, .T. ) ;
#8 = ADVANCED_FACE ( 'NONE', ( #130, #122 ), #121, .F. ) ;
#9 = ORIENTED_EDGE ( 'NONE', *, *, #81, .F. ) ;
#10 = ORIENTED_EDGE ( 'NONE', *, *, #11, .F. ) ;
#11 = EDGE_CURVE ( 'NONE', #79, #78, #226, .T. ) ;
#12 = ORIENTED_EDGE ( 'NONE', *, *, #24, .T. ) ;
#13 = ORIENTED_EDGE ( 'NONE', *, *, #2, .F. ) ;
#14 = EDGE_LOOP ( 'NONE', ( #3, #18, #65, #52 ) ) ;
#15 = VERTEX_POINT ( 'NONE', #119 ) ;
#16 = ORIENTED_EDGE ( 'NONE', *, *, #27, .T. ) ;
#17 = ORIENTED_EDGE ( 'NONE', *, *, #20, .F. ) ;
#18 = ORIENTED_EDGE ( 'NONE', *, *, #19, .T. ) ;
#19 = EDGE_CURVE ( 'NONE', #41, #29, #222, .T. ) ;
#20 = EDGE_CURVE ( 'NONE', #29, #28, #206, .T. ) ;
#21 = EDGE_CURVE ( 'NONE', #82, #22, #146, .T. ) ;
#22 = VERTEX_POINT ( 'NONE', #142 ) ;
#23 = ORIENTED_EDGE ( 'NONE', *, *, #24, .F. ) ;
#24 = EDGE_CURVE ( 'NONE', #79, #22, #151, .T. ) ;
#25 = ADVANCED_FACE ( 'NONE', ( #147 ), #164, .F. ) ;
#26 = EDGE_LOOP ( 'NONE', ( #9, #10, #12, #44 ) ) ;
#27 = EDGE_CURVE ( 'NONE', #30, #28, #105, .T. ) ;
#28 = VERTEX_POINT ( 'NONE', #101 ) ;
#29 = VERTEX_POINT ( 'NONE', #100 ) ;
#30 = VERTEX_POINT ( 'NONE', #212 ) ;
#31 = ADVANCED_FACE ( 'NONE', ( #211 ), #210, .F. ) ;
#32 = ORIENTED_EDGE ( 'NONE', *, *, #27, .F. ) ;
#33 = ORIENTED_EDGE ( 'NONE', *, *, #38, .F. ) ;
#34 = ORIENTED_EDGE ( 'NONE', *, *, #71, .T. ) ;
#35 = EDGE_LOOP ( 'NONE', ( #74, #97 ) ) ;
#36 = EDGE_LOOP ( 'NONE', ( #95, #37 ) ) ;
#37 = ORIENTED_EDGE ( 'NONE', *, *, #50, .F. ) ;
#38 = EDGE_CURVE ( 'NONE', #15, #30, #173, .T. ) ;
#39 = EDGE_LOOP ( 'NONE', ( #32, #33, #228, #229 ) ) ;
#40 = ORIENTED_EDGE ( 'NONE', *, *, #85, .F. ) ;
#41 = VERTEX_POINT ( 'NONE', #168 ) ;
#42 = ADVANCED_FACE ( 'NONE', ( #167 ), #165, .T. ) ;
#43 = EDGE_CURVE ( 'NONE', #30, #15, #190, .T. ) ;
#44 = ORIENTED_EDGE ( 'NONE', *, *, #45, .T. ) ;
#45 = EDGE_CURVE ( 'NONE', #22, #82, #185, .T. ) ;
#46 = ADVANCED_FACE ( 'NONE', ( #180 ), #176, .T. ) ;
#47 = EDGE_LOOP ( 'NONE', ( #48, #49, #51, #6 ) ) ;
#48 = ORIENTED_EDGE ( 'NONE', *, *, #19, .F. ) ;
#49 = ORIENTED_EDGE ( 'NONE', *, *, #50, .T. ) ;
#50 = EDGE_CURVE ( 'NONE', #41, #5, #177, .T. ) ;
#51 = ORIENTED_EDGE ( 'NONE', *, *, #53, .T. ) ;
#52 = ORIENTED_EDGE ( 'NONE', *, *, #53, .F. ) ;
#53 = EDGE_CURVE ( 'NONE', #5, #28, #154, .T. ) ;
#54 = ADVANCED_FACE ( 'NONE', ( #200 ), #199, .F. ) ;
#55 = EDGE_CURVE ( 'NONE', #61, #69, #194, .T. ) ;
#56 = VERTEX_POINT ( 'NONE', #115 ) ;
#57 = ORIENTED_EDGE ( 'NONE', *, *, #99, .F. ) ;
#58 = ORIENTED_EDGE ( 'NONE', *, *, #59, .T. ) ;
#59 = EDGE_CURVE ( 'NONE', #69, #56, #113, .T. ) ;
#60 = EDGE_LOOP ( 'NONE', ( #63, #16, #17, #13 ) ) ;
#61 = VERTEX_POINT ( 'NONE', #108 ) ;
#62 = ADVANCED_FACE ( 'NONE', ( #107 ), #233, .T. ) ;
#63 = ORIENTED_EDGE ( 'NONE', *, *, #43, .F. ) ;
#64 = EDGE_LOOP ( 'NONE', ( #124, #92 ) ) ;
#65 = ORIENTED_EDGE ( 'NONE', *, *, #20, .T. ) ;
#66 = EDGE_LOOP ( 'NONE', ( #98, #70, #58, #57 ) ) ;
#67 = MANIFOLD_SOLID_BREP ( 'NONE', #84 ) ;
#68 = ADVANCED_FACE ( 'NONE', ( #236 ), #238, .F. ) ;
#69 = VERTEX_POINT ( 'NONE', #239 ) ;
#70 = ORIENTED_EDGE ( 'NONE', *, *, #55, .T. ) ;
#71 = EDGE_CURVE ( 'NONE', #61, #72, #235, .T. ) ;
#72 = VERTEX_POINT ( 'NONE', #361 ) ;
#73 = ADVANCED_FACE ( 'NONE', ( #341, #352 ), #247, .T. ) ;
#74 = ORIENTED_EDGE ( 'NONE', *, *, #11, .T. ) ;
#75 = EDGE_LOOP ( 'NONE', ( #96, #88, #89, #213 ) ) ;
#76 = ORIENTED_EDGE ( 'NONE', *, *, #77, .F. ) ;
#77 = EDGE_CURVE ( 'NONE', #78, #79, #343, .T. ) ;
#78 = VERTEX_POINT ( 'NONE', #345 ) ;
#79 = VERTEX_POINT ( 'NONE', #344 ) ;
#80 = ORIENTED_EDGE ( 'NONE', *, *, #81, .T. ) ;
#81 = EDGE_CURVE ( 'NONE', #78, #82, #351, .T. ) ;
#82 = VERTEX_POINT ( 'NONE', #327 ) ;
#83 = ORIENTED_EDGE ( 'NONE', *, *, #21, .T. ) ;
#84 = CLOSED_SHELL ( 'NONE', ( #68, #62, #42, #54, #25, #46, #8, #86, #87, #73, #31 ) ) ;
#85 = EDGE_CURVE ( 'NONE', #56, #69, #356, .T. ) ;
#86 = ADVANCED_FACE ( 'NONE', ( #357, #266 ), #263, .T. ) ;
#87 = ADVANCED_FACE ( 'NONE', ( #262 ), #278, .T. ) ;
#88 = ORIENTED_EDGE ( 'NONE', *, *, #140, .F. ) ;
#89 = ORIENTED_EDGE ( 'NONE', *, *, #99, .T. ) ;
#90 = ORIENTED_EDGE ( 'NONE', *, *, #43, .T. ) ;
#91 = ORIENTED_EDGE ( 'NONE', *, *, #38, .T. ) ;
#92 = ORIENTED_EDGE ( 'NONE', *, *, #21, .F. ) ;
#93 = EDGE_LOOP ( 'NONE', ( #40, #230 ) ) ;
#94 = EDGE_LOOP ( 'NONE', ( #91, #90 ) ) ;
#95 = ORIENTED_EDGE ( 'NONE', *, *, #4, .F. ) ;
#96 = ORIENTED_EDGE ( 'NONE', *, *, #55, .F. ) ;
#97 = ORIENTED_EDGE ( 'NONE', *, *, #77, .T. ) ;
#98 = ORIENTED_EDGE ( 'NONE', *, *, #71, .F. ) ;
#99 = EDGE_CURVE ( 'NONE', #72, #56, #252, .T. ) ;
#100 = CARTESIAN_POINT ( 'NONE',  ( -12.50000000000000000, 1.530757942277971600E-015, -0.5000000000000022200 ) ) ;
#101 = CARTESIAN_POINT ( 'NONE',  ( 12.50000000000000000, 0.0000000000000000000, -0.5000000000000022200 ) ) ;
#102 = DIRECTION ( 'NONE',  ( 0.7071067811865463500, 8.659274570719340600E-017, -0.7071067811865487900 ) ) ;
#103 = VECTOR ( 'NONE', #102, 1000.000000000000000 ) ;
#104 = CARTESIAN_POINT ( 'NONE',  ( 12.00000000000000000, 1.469527624586852700E-015, 0.0000000000000000000 ) ) ;
#105 = LINE ( 'NONE', #104, #103 ) ;
#106 = DIRECTION ( 'NONE',  ( 0.0000000000000000000, 0.0000000000000000000, -1.000000000000000000 ) ) ;
#107 = FACE_OUTER_BOUND ( 'NONE', #60, .T. ) ;
#108 = CARTESIAN_POINT ( 'NONE',  ( -7.000000000000000000, 8.572244476756640800E-016, -9.000000000000000000 ) ) ;
#109 = DIRECTION ( 'NONE',  ( 1.000000000000000000, 0.0000000000000000000, 0.0000000000000000000 ) ) ;
#110 = DIRECTION ( 'NONE',  ( 0.0000000000000000000, 0.0000000000000000000, 1.000000000000000000 ) ) ;
#111 = CARTESIAN_POINT ( 'NONE',  ( 0.0000000000000000000, 0.0000000000000000000, 0.0000000000000000000 ) ) ;
#112 = AXIS2_PLACEMENT_3D ( 'NONE', #111, #110, #109 ) ;
#113 = CIRCLE ( 'NONE', #112, 7.000000000000000000 ) ;
#114 = CARTESIAN_POINT ( 'NONE',  ( 0.0000000000000000000, 0.0000000000000000000, 0.0000000000000000000 ) ) ;
#115 = CARTESIAN_POINT ( 'NONE',  ( 7.000000000000000000, 0.0000000000000000000, 0.0000000000000000000 ) ) ;
#116 = DIRECTION ( 'NONE',  ( -0.0000000000000000000, -0.0000000000000000000, 1.000000000000000000 ) ) ;
#117 = VECTOR ( 'NONE', #116, 1000.000000000000000 ) ;
#118 = CARTESIAN_POINT ( 'NONE',  ( -7.000000000000000000, 8.572244476756640800E-016, -9.000000000000000000 ) ) ;
#119 = CARTESIAN_POINT ( 'NONE',  ( -12.00000000000000000, 0.0000000000000000000, 0.0000000000000000000 ) ) ;
#120 = DIRECTION ( 'NONE',  ( 1.000000000000000000, 0.0000000000000000000, 0.0000000000000000000 ) ) ;
#121 = PLANE ( 'NONE',  #215 ) ;
#122 = FACE_OUTER_BOUND ( 'NONE', #36, .T. ) ;
#123 = DIRECTION ( 'NONE',  ( 1.000000000000000000, 0.0000000000000000000, 0.0000000000000000000 ) ) ;
#124 = ORIENTED_EDGE ( 'NONE', *, *, #45, .F. ) ;
#125 = DIRECTION ( 'NONE',  ( 1.000000000000000000, 0.0000000000000000000, 0.0000000000000000000 ) ) ;
#126 = DIRECTION ( 'NONE',  ( 0.0000000000000000000, 0.0000000000000000000, 1.000000000000000000 ) ) ;
#127 = CARTESIAN_POINT ( 'NONE',  ( -12.00000000000000000, 0.0000000000000000000, 0.0000000000000000000 ) ) ;
#128 = CARTESIAN_POINT ( 'NONE',  ( 0.0000000000000000000, 0.0000000000000000000, -16.00000000000000000 ) ) ;
#129 = CIRCLE ( 'NONE', #137, 12.50000000000000000 ) ;
#130 = FACE_BOUND ( 'NONE', #64, .T. ) ;
#131 = CIRCLE ( 'NONE', #132, 12.50000000000000000 ) ;
#132 = AXIS2_PLACEMENT_3D ( 'NONE', #128, #126, #125 ) ;
#133 = DIRECTION ( 'NONE',  ( 1.000000000000000000, 0.0000000000000000000, -0.0000000000000000000 ) ) ;
#134 = DIRECTION ( 'NONE',  ( 0.0000000000000000000, 0.0000000000000000000, 1.000000000000000000 ) ) ;
#135 = DIRECTION ( 'NONE',  ( 0.0000000000000000000, 0.0000000000000000000, -1.000000000000000000 ) ) ;
#136 = CARTESIAN_POINT ( 'NONE',  ( 0.0000000000000000000, 0.0000000000000000000, -0.5000000000000022200 ) ) ;
#137 = AXIS2_PLACEMENT_3D ( 'NONE', #136, #135, #123 ) ;
#138 = CARTESIAN_POINT ( 'NONE',  ( 12.50000000000000000, 0.0000000000000000000, -16.00000000000000000 ) ) ;
#139 = ORIENTED_EDGE ( 'NONE', *, *, #140, .T. ) ;
#140 = EDGE_CURVE ( 'NONE', #72, #61, #248, .T. ) ;
#141 = LINE ( 'NONE', #127, #217 ) ;
#142 = CARTESIAN_POINT ( 'NONE',  ( -4.250000000000000000, 0.0000000000000000000, -16.00000000000000000 ) ) ;
#143 = DIRECTION ( 'NONE',  ( -1.000000000000000000, 0.0000000000000000000, 0.0000000000000000000 ) ) ;
#144 = DIRECTION ( 'NONE',  ( 0.0000000000000000000, 0.0000000000000000000, -1.000000000000000000 ) ) ;
#145 = AXIS2_PLACEMENT_3D ( 'NONE', #218, #144, #143 ) ;
#146 = CIRCLE ( 'NONE', #145, 4.250000000000000000 ) ;
#147 = FACE_OUTER_BOUND ( 'NONE', #26, .T. ) ;
#148 = DIRECTION ( 'NONE',  ( -0.0000000000000000000, -0.0000000000000000000, -1.000000000000000000 ) ) ;
#149 = VECTOR ( 'NONE', #148, 1000.000000000000000 ) ;
#150 = CARTESIAN_POINT ( 'NONE',  ( -4.250000000000000000, 0.0000000000000000000, 0.001000000000001000100 ) ) ;
#151 = LINE ( 'NONE', #150, #149 ) ;
#152 = VECTOR ( 'NONE', #201, 1000.000000000000000 ) ;
#153 = CARTESIAN_POINT ( 'NONE',  ( 12.50000000000000000, 0.0000000000000000000, -16.00000000000000000 ) ) ;
#154 = LINE ( 'NONE', #153, #152 ) ;
#155 = DIRECTION ( 'NONE',  ( 1.000000000000000000, 0.0000000000000000000, 0.0000000000000000000 ) ) ;
#156 = DIRECTION ( 'NONE',  ( 0.0000000000000000000, 0.0000000000000000000, 1.000000000000000000 ) ) ;
#157 = CARTESIAN_POINT ( 'NONE',  ( 0.0000000000000000000, 0.0000000000000000000, -16.00000000000000000 ) ) ;
#158 = AXIS2_PLACEMENT_3D ( 'NONE', #157, #156, #155 ) ;
#159 = DIRECTION ( 'NONE',  ( 1.000000000000000000, 0.0000000000000000000, 0.0000000000000000000 ) ) ;
#160 = DIRECTION ( 'NONE',  ( -1.000000000000000000, 0.0000000000000000000, 0.0000000000000000000 ) ) ;
#161 = DIRECTION ( 'NONE',  ( -0.0000000000000000000, -0.0000000000000000000, -1.000000000000000000 ) ) ;
#162 = CARTESIAN_POINT ( 'NONE',  ( 0.0000000000000000000, 0.0000000000000000000, 0.001000000000001000100 ) ) ;
#163 = AXIS2_PLACEMENT_3D ( 'NONE', #162, #161, #160 ) ;
#164 = CYLINDRICAL_SURFACE ( 'NONE', #163, 4.250000000000000000 ) ;
#165 = CYLINDRICAL_SURFACE ( 'NONE', #166, 12.50000000000000000 ) ;
#166 = AXIS2_PLACEMENT_3D ( 'NONE', #193, #192, #191 ) ;
#167 = FACE_OUTER_BOUND ( 'NONE', #14, .T. ) ;
#168 = CARTESIAN_POINT ( 'NONE',  ( -12.50000000000000000, 1.530757942277971600E-015, -16.00000000000000000 ) ) ;
#169 = DIRECTION ( 'NONE',  ( 1.000000000000000000, 0.0000000000000000000, 0.0000000000000000000 ) ) ;
#170 = DIRECTION ( 'NONE',  ( 0.0000000000000000000, 0.0000000000000000000, 1.000000000000000000 ) ) ;
#171 = CARTESIAN_POINT ( 'NONE',  ( 0.0000000000000000000, 0.0000000000000000000, 0.0000000000000000000 ) ) ;
#172 = AXIS2_PLACEMENT_3D ( 'NONE', #171, #170, #169 ) ;
#173 = CIRCLE ( 'NONE', #172, 12.00000000000000000 ) ;
#174 = DIRECTION ( 'NONE',  ( 1.000000000000000000, 0.0000000000000000000, 0.0000000000000000000 ) ) ;
#175 = DIRECTION ( 'NONE',  ( 0.0000000000000000000, 0.0000000000000000000, 1.000000000000000000 ) ) ;
#176 = CYLINDRICAL_SURFACE ( 'NONE', #179, 12.50000000000000000 ) ;
#177 = CIRCLE ( 'NONE', #158, 12.50000000000000000 ) ;
#178 = CARTESIAN_POINT ( 'NONE',  ( 0.0000000000000000000, 0.0000000000000000000, -16.00000000000000000 ) ) ;
#179 = AXIS2_PLACEMENT_3D ( 'NONE', #178, #175, #159 ) ;
#180 = FACE_OUTER_BOUND ( 'NONE', #47, .T. ) ;
#181 = DIRECTION ( 'NONE',  ( -1.000000000000000000, 0.0000000000000000000, 0.0000000000000000000 ) ) ;
#182 = DIRECTION ( 'NONE',  ( 0.0000000000000000000, 0.0000000000000000000, -1.000000000000000000 ) ) ;
#183 = CARTESIAN_POINT ( 'NONE',  ( 0.0000000000000000000, 0.0000000000000000000, -16.00000000000000000 ) ) ;
#184 = AXIS2_PLACEMENT_3D ( 'NONE', #183, #182, #181 ) ;
#185 = CIRCLE ( 'NONE', #184, 4.250000000000000000 ) ;
#186 = DIRECTION ( 'NONE',  ( 1.000000000000000000, 0.0000000000000000000, 0.0000000000000000000 ) ) ;
#187 = DIRECTION ( 'NONE',  ( 0.0000000000000000000, 0.0000000000000000000, 1.000000000000000000 ) ) ;
#188 = CARTESIAN_POINT ( 'NONE',  ( 0.0000000000000000000, 0.0000000000000000000, 0.0000000000000000000 ) ) ;
#189 = AXIS2_PLACEMENT_3D ( 'NONE', #188, #187, #186 ) ;
#190 = CIRCLE ( 'NONE', #189, 12.00000000000000000 ) ;
#191 = DIRECTION ( 'NONE',  ( 1.000000000000000000, 0.0000000000000000000, 0.0000000000000000000 ) ) ;
#192 = DIRECTION ( 'NONE',  ( 0.0000000000000000000, 0.0000000000000000000, 1.000000000000000000 ) ) ;
#193 = CARTESIAN_POINT ( 'NONE',  ( 0.0000000000000000000, 0.0000000000000000000, -16.00000000000000000 ) ) ;
#194 = LINE ( 'NONE', #118, #117 ) ;
#195 = DIRECTION ( 'NONE',  ( -1.000000000000000000, 0.0000000000000000000, 0.0000000000000000000 ) ) ;
#196 = DIRECTION ( 'NONE',  ( -0.0000000000000000000, -0.0000000000000000000, -1.000000000000000000 ) ) ;
#197 = CARTESIAN_POINT ( 'NONE',  ( 0.0000000000000000000, 0.0000000000000000000, 0.001000000000001000100 ) ) ;
#198 = AXIS2_PLACEMENT_3D ( 'NONE', #197, #196, #195 ) ;
#199 = CYLINDRICAL_SURFACE ( 'NONE', #198, 4.250000000000000000 ) ;
#200 = FACE_OUTER_BOUND ( 'NONE', #1, .T. ) ;
#201 = DIRECTION ( 'NONE',  ( 0.0000000000000000000, 0.0000000000000000000, 1.000000000000000000 ) ) ;
#202 = DIRECTION ( 'NONE',  ( 1.000000000000000000, 0.0000000000000000000, 0.0000000000000000000 ) ) ;
#203 = DIRECTION ( 'NONE',  ( 0.0000000000000000000, 0.0000000000000000000, -1.000000000000000000 ) ) ;
#204 = CARTESIAN_POINT ( 'NONE',  ( 0.0000000000000000000, 0.0000000000000000000, -0.5000000000000022200 ) ) ;
#205 = AXIS2_PLACEMENT_3D ( 'NONE', #204, #203, #202 ) ;
#206 = CIRCLE ( 'NONE', #205, 12.50000000000000000 ) ;
#207 = DIRECTION ( 'NONE',  ( -0.0000000000000000000, -0.0000000000000000000, 1.000000000000000000 ) ) ;
#208 = CARTESIAN_POINT ( 'NONE',  ( 0.0000000000000000000, 0.0000000000000000000, -9.000000000000000000 ) ) ;
#209 = AXIS2_PLACEMENT_3D ( 'NONE', #208, #207, #174 ) ;
#210 = CYLINDRICAL_SURFACE ( 'NONE', #209, 7.000000000000000000 ) ;
#211 = FACE_OUTER_BOUND ( 'NONE', #75, .T. ) ;
#212 = CARTESIAN_POINT ( 'NONE',  ( 12.00000000000000000, 1.500142783432412100E-015, 0.0000000000000000000 ) ) ;
#213 = ORIENTED_EDGE ( 'NONE', *, *, #85, .T. ) ;
#214 = CARTESIAN_POINT ( 'NONE',  ( 0.0000000000000000000, 0.0000000000000000000, -16.00000000000000000 ) ) ;
#215 = AXIS2_PLACEMENT_3D ( 'NONE', #214, #134, #133 ) ;
#216 = DIRECTION ( 'NONE',  ( -0.7071067811865463500, 0.0000000000000000000, -0.7071067811865487900 ) ) ;
#217 = VECTOR ( 'NONE', #216, 1000.000000000000000 ) ;
#218 = CARTESIAN_POINT ( 'NONE',  ( 0.0000000000000000000, 0.0000000000000000000, -16.00000000000000000 ) ) ;
#219 = DIRECTION ( 'NONE',  ( 0.0000000000000000000, 0.0000000000000000000, 1.000000000000000000 ) ) ;
#220 = VECTOR ( 'NONE', #219, 1000.000000000000000 ) ;
#221 = CARTESIAN_POINT ( 'NONE',  ( -12.50000000000000000, 1.530757942277971600E-015, -16.00000000000000000 ) ) ;
#222 = LINE ( 'NONE', #221, #220 ) ;
#223 = DIRECTION ( 'NONE',  ( -0.0000000000000000000, -0.0000000000000000000, -1.000000000000000000 ) ) ;
#224 = CARTESIAN_POINT ( 'NONE',  ( 0.0000000000000000000, 0.0000000000000000000, -9.000000000000000000 ) ) ;
#225 = AXIS2_PLACEMENT_3D ( 'NONE', #224, #223, #120 ) ;
#226 = CIRCLE ( 'NONE', #225, 4.250000000000000000 ) ;
#227 = EDGE_LOOP ( 'NONE', ( #139, #34 ) ) ;
#228 = ORIENTED_EDGE ( 'NONE', *, *, #2, .T. ) ;
#229 = ORIENTED_EDGE ( 'NONE', *, *, #7, .F. ) ;
#230 = ORIENTED_EDGE ( 'NONE', *, *, #59, .F. ) ;
#231 = DIRECTION ( 'NONE',  ( -1.000000000000000000, 0.0000000000000000000, 0.0000000000000000000 ) ) ;
#232 = AXIS2_PLACEMENT_3D ( 'NONE', #114, #106, #231 ) ;
#233 = CONICAL_SURFACE ( 'NONE', #232, 12.00000000000000000, 0.7853981633974466100 ) ;
#234 = AXIS2_PLACEMENT_3D ( 'NONE', #259, #276, #243 ) ;
#235 = CIRCLE ( 'NONE', #234, 7.000000000000000000 ) ;
#236 = FACE_OUTER_BOUND ( 'NONE', #66, .T. ) ;
#237 = DIRECTION ( 'NONE',  ( -0.0000000000000000000, -0.0000000000000000000, 1.000000000000000000 ) ) ;
#238 = CYLINDRICAL_SURFACE ( 'NONE', #242, 7.000000000000000000 ) ;
#239 = CARTESIAN_POINT ( 'NONE',  ( -7.000000000000000000, 8.572244476756640800E-016, 0.0000000000000000000 ) ) ;
#240 = DIRECTION ( 'NONE',  ( 1.000000000000000000, 0.0000000000000000000, 0.0000000000000000000 ) ) ;
#241 = CARTESIAN_POINT ( 'NONE',  ( 0.0000000000000000000, 0.0000000000000000000, -9.000000000000000000 ) ) ;
#242 = AXIS2_PLACEMENT_3D ( 'NONE', #241, #237, #240 ) ;
#243 = DIRECTION ( 'NONE',  ( 1.000000000000000000, 0.0000000000000000000, 0.0000000000000000000 ) ) ;
#244 = DIRECTION ( 'NONE',  ( 0.0000000000000000000, 0.0000000000000000000, 1.000000000000000000 ) ) ;
#245 = CARTESIAN_POINT ( 'NONE',  ( 0.0000000000000000000, 0.0000000000000000000, -9.000000000000000000 ) ) ;
#246 = DIRECTION ( 'NONE',  ( -1.000000000000000000, 0.0000000000000000000, 0.0000000000000000000 ) ) ;
#247 = PLANE ( 'NONE',  #360 ) ;
#248 = CIRCLE ( 'NONE', #379, 7.000000000000000000 ) ;
#249 = DIRECTION ( 'NONE',  ( -0.0000000000000000000, -0.0000000000000000000, 1.000000000000000000 ) ) ;
#250 = VECTOR ( 'NONE', #249, 1000.000000000000000 ) ;
#251 = CARTESIAN_POINT ( 'NONE',  ( 7.000000000000000000, 0.0000000000000000000, -9.000000000000000000 ) ) ;
#252 = LINE ( 'NONE', #251, #250 ) ;
#253 = DIRECTION ( 'NONE',  ( 0.0000000000000000000, 0.0000000000000000000, 1.000000000000000000 ) ) ;
#254 = AXIS2_PLACEMENT_3D ( 'NONE', #375, #253, #256 ) ;
#255 = SHAPE_DEFINITION_REPRESENTATION ( #328, #258 ) ;
#256 = DIRECTION ( 'NONE',  ( 1.000000000000000000, 0.0000000000000000000, 0.0000000000000000000 ) ) ;
#257 = APPLICATION_CONTEXT ( 'configuration controlled 3d designs of mechanical parts and assemblies' ) ;
#258 = ADVANCED_BREP_SHAPE_REPRESENTATION ( '600-205', ( #67, #254 ), #273 ) ;
#259 = CARTESIAN_POINT ( 'NONE',  ( 0.0000000000000000000, 0.0000000000000000000, -9.000000000000000000 ) ) ;
#260 = DIRECTION ( 'NONE',  ( 1.000000000000000000, 0.0000000000000000000, -0.0000000000000000000 ) ) ;
#261 = DIRECTION ( 'NONE',  ( 0.0000000000000000000, 0.0000000000000000000, 1.000000000000000000 ) ) ;
#262 = FACE_OUTER_BOUND ( 'NONE', #39, .T. ) ;
#263 = PLANE ( 'NONE',  #265 ) ;
#264 = CARTESIAN_POINT ( 'NONE',  ( 0.0000000000000000000, 0.0000000000000000000, 0.0000000000000000000 ) ) ;
#265 = AXIS2_PLACEMENT_3D ( 'NONE', #264, #261, #260 ) ;
#266 = FACE_OUTER_BOUND ( 'NONE', #94, .T. ) ;
#267 = DIRECTION ( 'NONE',  ( 1.000000000000000000, 0.0000000000000000000, 0.0000000000000000000 ) ) ;
#268 = ORGANIZATION ( 'UNSPECIFIED', 'UNSPECIFIED', '' ) ;
#269 = PERSON ( 'UNSPECIFIED', 'UNSPECIFIED', 'UNSPECIFIED', ('UNSPECIFIED'), ('UNSPECIFIED'), ('UNSPECIFIED') ) ;
#270 = PRODUCT ( '600-205', '600-205', '', ( #271 ) ) ;
#271 = MECHANICAL_CONTEXT ( 'NONE', #257, 'mechanical' ) ;
#272 = APPLICATION_PROTOCOL_DEFINITION ( 'international standard', 'config_control_design', 1994, #257 ) ;
#273 =( GEOMETRIC_REPRESENTATION_CONTEXT ( 3 ) GLOBAL_UNCERTAINTY_ASSIGNED_CONTEXT ( ( #274 ) ) GLOBAL_UNIT_ASSIGNED_CONTEXT ( ( #359, #358, #275 ) ) REPRESENTATION_CONTEXT ( 'NONE', 'WORKASPACE' ) );
#274 = UNCERTAINTY_MEASURE_WITH_UNIT (LENGTH_MEASURE( 1.000000000000000100E-005 ), #359, 'distance_accuracy_value', 'NONE');
#275 =( NAMED_UNIT ( * ) SI_UNIT ( $, .STERADIAN. ) SOLID_ANGLE_UNIT ( ) );
#276 = DIRECTION ( 'NONE',  ( 0.0000000000000000000, 0.0000000000000000000, 1.000000000000000000 ) ) ;
#277 = DIRECTION ( 'NONE',  ( 0.0000000000000000000, 0.0000000000000000000, -1.000000000000000000 ) ) ;
#278 = CONICAL_SURFACE ( 'NONE', #280, 12.00000000000000000, 0.7853981633974466100 ) ;
#279 = CARTESIAN_POINT ( 'NONE',  ( 0.0000000000000000000, 0.0000000000000000000, 0.0000000000000000000 ) ) ;
#280 = AXIS2_PLACEMENT_3D ( 'NONE', #279, #277, #246 ) ;
#281 = SECURITY_CLASSIFICATION_LEVEL ( 'unclassified' ) ;
#282 = CC_DESIGN_PERSON_AND_ORGANIZATION_ASSIGNMENT ( #284, #283, ( #299 ) ) ;
#283 = PERSON_AND_ORGANIZATION_ROLE ( 'design_supplier' ) ;
#284 = PERSON_AND_ORGANIZATION ( #269, #268 ) ;
#285 = CC_DESIGN_PERSON_AND_ORGANIZATION_ASSIGNMENT ( #287, #286, ( #299 ) ) ;
#286 = PERSON_AND_ORGANIZATION_ROLE ( 'creator' ) ;
#287 = PERSON_AND_ORGANIZATION ( #269, #268 ) ;
#288 = CC_DESIGN_APPROVAL ( #296, ( #299 ) ) ;
#289 = APPROVAL_DATE_TIME ( #290, #296 ) ;
#290 = DATE_AND_TIME ( #291, #292 ) ;
#291 = CALENDAR_DATE ( 2009, 23, 9 ) ;
#292 = LOCAL_TIME ( 3, 26, 45.00000000000000000, #293 ) ;
#293 = COORDINATED_UNIVERSAL_TIME_OFFSET ( 5, 0, .BEHIND. ) ;
#294 = APPROVAL_PERSON_ORGANIZATION ( #298, #296, #295 ) ;
#295 = APPROVAL_ROLE ( '' ) ;
#296 = APPROVAL ( #297, 'UNSPECIFIED' ) ;
#297 = APPROVAL_STATUS ( 'not_yet_approved' ) ;
#298 = PERSON_AND_ORGANIZATION ( #269, #268 ) ;
#299 = PRODUCT_DEFINITION_FORMATION_WITH_SPECIFIED_SOURCE ( 'ANY', '', #270, .NOT_KNOWN. ) ;
#300 = CC_DESIGN_DATE_AND_TIME_ASSIGNMENT ( #302, #301, ( #320 ) ) ;
#301 = DATE_TIME_ROLE ( 'creation_date' ) ;
#302 = DATE_AND_TIME ( #303, #304 ) ;
#303 = CALENDAR_DATE ( 2009, 23, 9 ) ;
#304 = LOCAL_TIME ( 3, 26, 45.00000000000000000, #305 ) ;
#305 = COORDINATED_UNIVERSAL_TIME_OFFSET ( 5, 0, .BEHIND. ) ;
#306 = CC_DESIGN_PERSON_AND_ORGANIZATION_ASSIGNMENT ( #308, #307, ( #320 ) ) ;
#307 = PERSON_AND_ORGANIZATION_ROLE ( 'creator' ) ;
#308 = PERSON_AND_ORGANIZATION ( #269, #268 ) ;
#309 = CC_DESIGN_APPROVAL ( #317, ( #320 ) ) ;
#310 = APPROVAL_DATE_TIME ( #311, #317 ) ;
#311 = DATE_AND_TIME ( #312, #313 ) ;
#312 = CALENDAR_DATE ( 2009, 23, 9 ) ;
#313 = LOCAL_TIME ( 3, 26, 45.00000000000000000, #314 ) ;
#314 = COORDINATED_UNIVERSAL_TIME_OFFSET ( 5, 0, .BEHIND. ) ;
#315 = APPROVAL_PERSON_ORGANIZATION ( #319, #317, #316 ) ;
#316 = APPROVAL_ROLE ( '' ) ;
#317 = APPROVAL ( #318, 'UNSPECIFIED' ) ;
#318 = APPROVAL_STATUS ( 'not_yet_approved' ) ;
#319 = PERSON_AND_ORGANIZATION ( #269, #268 ) ;
#320 = PRODUCT_DEFINITION ( 'UNKNOWN', '', #299, #321 ) ;
#321 = DESIGN_CONTEXT ( 'detailed design', #323, 'design' ) ;
#322 = APPLICATION_PROTOCOL_DEFINITION ( 'international standard', 'config_control_design', 1994, #323 ) ;
#323 = APPLICATION_CONTEXT ( 'configuration controlled 3d designs of mechanical parts and assemblies' ) ;
#324 = CC_DESIGN_PERSON_AND_ORGANIZATION_ASSIGNMENT ( #326, #325, ( #270 ) ) ;
#325 = PERSON_AND_ORGANIZATION_ROLE ( 'design_owner' ) ;
#326 = PERSON_AND_ORGANIZATION ( #269, #268 ) ;
#327 = CARTESIAN_POINT ( 'NONE',  ( 4.250000000000000000, 5.204577003745104300E-016, -16.00000000000000000 ) ) ;
#328 = PRODUCT_DEFINITION_SHAPE ( 'NONE', 'NONE',  #320 ) ;
#329 = PRODUCT_RELATED_PRODUCT_CATEGORY ( 'detail', '', ( #270 ) ) ;
#330 = CC_DESIGN_SECURITY_CLASSIFICATION ( #374, ( #299 ) ) ;
#331 = CC_DESIGN_APPROVAL ( #362, ( #374 ) ) ;
#332 = APPROVAL_DATE_TIME ( #333, #362 ) ;
#333 = DATE_AND_TIME ( #334, #335 ) ;
#334 = CALENDAR_DATE ( 2009, 23, 9 ) ;
#335 = LOCAL_TIME ( 3, 26, 45.00000000000000000, #336 ) ;
#336 = COORDINATED_UNIVERSAL_TIME_OFFSET ( 5, 0, .BEHIND. ) ;
#337 = APPROVAL_PERSON_ORGANIZATION ( #364, #362, #338 ) ;
#338 = APPROVAL_ROLE ( '' ) ;
#339 = CARTESIAN_POINT ( 'NONE',  ( 0.0000000000000000000, 0.0000000000000000000, -9.000000000000000000 ) ) ;
#340 = DIRECTION ( 'NONE',  ( 1.000000000000000000, 0.0000000000000000000, -0.0000000000000000000 ) ) ;
#341 = FACE_OUTER_BOUND ( 'NONE', #227, .T. ) ;
#342 = AXIS2_PLACEMENT_3D ( 'NONE', #339, #347, #346 ) ;
#343 = CIRCLE ( 'NONE', #342, 4.250000000000000000 ) ;
#344 = CARTESIAN_POINT ( 'NONE',  ( -4.250000000000000000, 0.0000000000000000000, -9.000000000000000000 ) ) ;
#345 = CARTESIAN_POINT ( 'NONE',  ( 4.250000000000000000, 5.204577003745104300E-016, -9.000000000000000000 ) ) ;
#346 = DIRECTION ( 'NONE',  ( 1.000000000000000000, 0.0000000000000000000, 0.0000000000000000000 ) ) ;
#347 = DIRECTION ( 'NONE',  ( -0.0000000000000000000, -0.0000000000000000000, -1.000000000000000000 ) ) ;
#348 = DIRECTION ( 'NONE',  ( -0.0000000000000000000, -0.0000000000000000000, -1.000000000000000000 ) ) ;
#349 = VECTOR ( 'NONE', #348, 1000.000000000000000 ) ;
#350 = CARTESIAN_POINT ( 'NONE',  ( 4.250000000000000000, 5.204577003745104300E-016, 0.001000000000001000100 ) ) ;
#351 = LINE ( 'NONE', #350, #349 ) ;
#352 = FACE_BOUND ( 'NONE', #35, .T. ) ;
#353 = DIRECTION ( 'NONE',  ( 0.0000000000000000000, 0.0000000000000000000, 1.000000000000000000 ) ) ;
#354 = CARTESIAN_POINT ( 'NONE',  ( 0.0000000000000000000, 0.0000000000000000000, 0.0000000000000000000 ) ) ;
#355 = AXIS2_PLACEMENT_3D ( 'NONE', #354, #353, #267 ) ;
#356 = CIRCLE ( 'NONE', #355, 7.000000000000000000 ) ;
#357 = FACE_BOUND ( 'NONE', #93, .T. ) ;
#358 =( NAMED_UNIT ( * ) PLANE_ANGLE_UNIT ( ) SI_UNIT ( $, .RADIAN. ) );
#359 =( LENGTH_UNIT ( ) NAMED_UNIT ( * ) SI_UNIT ( .MILLI., .METRE. ) );
#360 = AXIS2_PLACEMENT_3D ( 'NONE', #245, #244, #340 ) ;
#361 = CARTESIAN_POINT ( 'NONE',  ( 7.000000000000000000, 0.0000000000000000000, -9.000000000000000000 ) ) ;
#362 = APPROVAL ( #363, 'UNSPECIFIED' ) ;
#363 = APPROVAL_STATUS ( 'not_yet_approved' ) ;
#364 = PERSON_AND_ORGANIZATION ( #269, #268 ) ;
#365 = CC_DESIGN_DATE_AND_TIME_ASSIGNMENT ( #367, #366, ( #374 ) ) ;
#366 = DATE_TIME_ROLE ( 'classification_date' ) ;
#367 = DATE_AND_TIME ( #368, #369 ) ;
#368 = CALENDAR_DATE ( 2009, 23, 9 ) ;
#369 = LOCAL_TIME ( 3, 26, 45.00000000000000000, #370 ) ;
#370 = COORDINATED_UNIVERSAL_TIME_OFFSET ( 5, 0, .BEHIND. ) ;
#371 = CC_DESIGN_PERSON_AND_ORGANIZATION_ASSIGNMENT ( #373, #372, ( #374 ) ) ;
#372 = PERSON_AND_ORGANIZATION_ROLE ( 'classification_officer' ) ;
#373 = PERSON_AND_ORGANIZATION ( #269, #268 ) ;
#374 = SECURITY_CLASSIFICATION ( '', '', #281 ) ;
#375 = CARTESIAN_POINT ( 'NONE',  ( 0.0000000000000000000, 0.0000000000000000000, 0.0000000000000000000 ) ) ;
#376 = DIRECTION ( 'NONE',  ( 1.000000000000000000, 0.0000000000000000000, 0.0000000000000000000 ) ) ;
#377 = DIRECTION ( 'NONE',  ( 0.0000000000000000000, 0.0000000000000000000, 1.000000000000000000 ) ) ;
#378 = CARTESIAN_POINT ( 'NONE',  ( 0.0000000000000000000, 0.0000000000000000000, -9.000000000000000000 ) ) ;
#379 = AXIS2_PLACEMENT_3D ( 'NONE', #378, #377, #376 ) ;
ENDSEC;
END-ISO-10303-21;
