ISO-10303-21;
HEADER;
FILE_DESCRIPTION (( 'STEP AP214' ),
    '1' );
FILE_NAME ('600-204.step',
    '2010-07-14T06:53:34',
    ( 'SysAdmin' ),
    ( 'SolidWorks' ),
    'SwSTEP 2.0',
    'SolidWorks 2010',
    '' );
FILE_SCHEMA (( 'AUTOMOTIVE_DESIGN' ));
ENDSEC;

DATA;
#1 = ORIENTED_EDGE ( 'NONE', *, *, #52, .T. ) ;
#2 = VERTEX_POINT ( 'NONE', #157 ) ;
#3 = ORIENTED_EDGE ( 'NONE', *, *, #4, .F. ) ;
#4 = EDGE_CURVE ( 'NONE', #28, #117, #119, .T. ) ;
#5 = ADVANCED_FACE ( 'NONE', ( #215 ), #165, .T. ) ;
#6 = VERTEX_POINT ( 'NONE', #120 ) ;
#7 = VERTEX_POINT ( 'NONE', #156 ) ;
#8 = DIRECTION ( 'NONE',  ( 0.0000000000000000000, 0.0000000000000000000, 1.000000000000000000 ) ) ;
#9 = AXIS2_PLACEMENT_3D ( 'NONE', #11, #8, #10 ) ;
#10 = DIRECTION ( 'NONE',  ( 1.000000000000000000, 0.0000000000000000000, -0.0000000000000000000 ) ) ;
#11 = CARTESIAN_POINT ( 'NONE',  ( 0.0000000000000000000, 0.0000000000000000000, -9.000000000000000000 ) ) ;
#12 = PLANE ( 'NONE',  #9 ) ;
#13 = FACE_OUTER_BOUND ( 'NONE', #90, .T. ) ;
#14 = EDGE_LOOP ( 'NONE', ( #71, #67 ) ) ;
#15 = ORIENTED_EDGE ( 'NONE', *, *, #99, .T. ) ;
#16 = VERTEX_POINT ( 'NONE', #162 ) ;
#17 = EDGE_LOOP ( 'NONE', ( #29, #32, #26, #3 ) ) ;
#18 = EDGE_CURVE ( 'NONE', #6, #94, #131, .T. ) ;
#19 = EDGE_CURVE ( 'NONE', #2, #6, #148, .T. ) ;
#20 = VERTEX_POINT ( 'NONE', #250 ) ;
#21 = ORIENTED_EDGE ( 'NONE', *, *, #46, .T. ) ;
#22 = ADVANCED_FACE ( 'NONE', ( #170 ), #130, .T. ) ;
#23 = EDGE_CURVE ( 'NONE', #49, #96, #163, .T. ) ;
#24 = ORIENTED_EDGE ( 'NONE', *, *, #51, .F. ) ;
#25 = ORIENTED_EDGE ( 'NONE', *, *, #43, .T. ) ;
#26 = ORIENTED_EDGE ( 'NONE', *, *, #33, .T. ) ;
#27 = ADVANCED_FACE ( 'NONE', ( #181 ), #242, .F. ) ;
#28 = VERTEX_POINT ( 'NONE', #167 ) ;
#29 = ORIENTED_EDGE ( 'NONE', *, *, #115, .F. ) ;
#30 = EDGE_CURVE ( 'NONE', #20, #116, #226, .T. ) ;
#31 = ORIENTED_EDGE ( 'NONE', *, *, #19, .F. ) ;
#32 = ORIENTED_EDGE ( 'NONE', *, *, #30, .T. ) ;
#33 = EDGE_CURVE ( 'NONE', #116, #117, #185, .T. ) ;
#34 = EDGE_LOOP ( 'NONE', ( #31, #98, #101, #45 ) ) ;
#35 = EDGE_CURVE ( 'NONE', #16, #114, #135, .T. ) ;
#36 = EDGE_LOOP ( 'NONE', ( #105, #41, #39, #42 ) ) ;
#37 = ADVANCED_FACE ( 'NONE', ( #220 ), #236, .F. ) ;
#38 = EDGE_CURVE ( 'NONE', #114, #7, #221, .T. ) ;
#39 = ORIENTED_EDGE ( 'NONE', *, *, #35, .T. ) ;
#40 = EDGE_LOOP ( 'NONE', ( #24, #113, #21, #25 ) ) ;
#41 = ORIENTED_EDGE ( 'NONE', *, *, #103, .F. ) ;
#42 = ORIENTED_EDGE ( 'NONE', *, *, #38, .T. ) ;
#43 = EDGE_CURVE ( 'NONE', #97, #94, #178, .T. ) ;
#44 = EDGE_LOOP ( 'NONE', ( #1, #50, #15, #104 ) ) ;
#45 = ORIENTED_EDGE ( 'NONE', *, *, #18, .F. ) ;
#46 = EDGE_CURVE ( 'NONE', #96, #97, #139, .T. ) ;
#47 = ORIENTED_EDGE ( 'NONE', *, *, #112, .T. ) ;
#48 = ADVANCED_FACE ( 'NONE', ( #179 ), #251, .T. ) ;
#49 = VERTEX_POINT ( 'NONE', #253 ) ;
#50 = ORIENTED_EDGE ( 'NONE', *, *, #51, .T. ) ;
#51 = EDGE_CURVE ( 'NONE', #49, #94, #254, .T. ) ;
#52 = EDGE_CURVE ( 'NONE', #96, #49, #252, .T. ) ;
#53 = ADVANCED_FACE ( 'NONE', ( #124, #245 ), #244, .F. ) ;
#54 = ORIENTED_EDGE ( 'NONE', *, *, #73, .T. ) ;
#55 = DIRECTION ( 'NONE',  ( 0.0000000000000000000, 0.0000000000000000000, -1.000000000000000000 ) ) ;
#56 = CARTESIAN_POINT ( 'NONE',  ( 0.0000000000000000000, 0.0000000000000000000, 0.0000000000000000000 ) ) ;
#57 = ADVANCED_FACE ( 'NONE', ( #128 ), #210, .F. ) ;
#58 = ORIENTED_EDGE ( 'NONE', *, *, #4, .T. ) ;
#59 = ORIENTED_EDGE ( 'NONE', *, *, #30, .F. ) ;
#60 = ORIENTED_EDGE ( 'NONE', *, *, #79, .F. ) ;
#61 = ORIENTED_EDGE ( 'NONE', *, *, #103, .T. ) ;
#62 = ORIENTED_EDGE ( 'NONE', *, *, #43, .F. ) ;
#63 = EDGE_LOOP ( 'NONE', ( #76, #80 ) ) ;
#64 = EDGE_LOOP ( 'NONE', ( #92, #70 ) ) ;
#65 = ADVANCED_FACE ( 'NONE', ( #207, #209 ), #127, .T. ) ;
#66 = ORIENTED_EDGE ( 'NONE', *, *, #73, .F. ) ;
#67 = ORIENTED_EDGE ( 'NONE', *, *, #112, .F. ) ;
#68 = AXIS2_PLACEMENT_3D ( 'NONE', #56, #55, #118 ) ;
#69 = CLOSED_SHELL ( 'NONE', ( #27, #5, #48, #106, #37, #22, #53, #65, #82, #81, #57 ) ) ;
#70 = ORIENTED_EDGE ( 'NONE', *, *, #23, .F. ) ;
#71 = ORIENTED_EDGE ( 'NONE', *, *, #38, .F. ) ;
#72 = CONICAL_SURFACE ( 'NONE', #68, 10.50000000000000000, 0.7853981633974465000 ) ;
#73 = EDGE_CURVE ( 'NONE', #117, #116, #129, .T. ) ;
#74 = MANIFOLD_SOLID_BREP ( 'Cut-Extrude3', #69 ) ;
#75 = EDGE_LOOP ( 'NONE', ( #61, #78 ) ) ;
#76 = ORIENTED_EDGE ( 'NONE', *, *, #79, .T. ) ;
#77 = EDGE_LOOP ( 'NONE', ( #59, #60, #58, #54 ) ) ;
#78 = ORIENTED_EDGE ( 'NONE', *, *, #109, .T. ) ;
#79 = EDGE_CURVE ( 'NONE', #28, #20, #147, .T. ) ;
#80 = ORIENTED_EDGE ( 'NONE', *, *, #115, .T. ) ;
#81 = ADVANCED_FACE ( 'NONE', ( #201, #158 ), #12, .T. ) ;
#82 = ADVANCED_FACE ( 'NONE', ( #13 ), #72, .T. ) ;
#83 = ORIENTED_EDGE ( 'NONE', *, *, #18, .T. ) ;
#84 = ORIENTED_EDGE ( 'NONE', *, *, #87, .T. ) ;
#85 = ORIENTED_EDGE ( 'NONE', *, *, #33, .F. ) ;
#86 = ORIENTED_EDGE ( 'NONE', *, *, #87, .F. ) ;
#87 = EDGE_CURVE ( 'NONE', #6, #2, #305, .T. ) ;
#88 = ORIENTED_EDGE ( 'NONE', *, *, #19, .T. ) ;
#89 = EDGE_LOOP ( 'NONE', ( #84, #88 ) ) ;
#90 = EDGE_LOOP ( 'NONE', ( #91, #86, #83, #62 ) ) ;
#91 = ORIENTED_EDGE ( 'NONE', *, *, #95, .F. ) ;
#92 = ORIENTED_EDGE ( 'NONE', *, *, #52, .F. ) ;
#93 = EDGE_LOOP ( 'NONE', ( #66, #85 ) ) ;
#94 = VERTEX_POINT ( 'NONE', #324 ) ;
#95 = EDGE_CURVE ( 'NONE', #2, #97, #273, .T. ) ;
#96 = VERTEX_POINT ( 'NONE', #291 ) ;
#97 = VERTEX_POINT ( 'NONE', #303 ) ;
#98 = ORIENTED_EDGE ( 'NONE', *, *, #95, .T. ) ;
#99 = EDGE_CURVE ( 'NONE', #94, #97, #322, .T. ) ;
#100 = EDGE_LOOP ( 'NONE', ( #107, #111, #47, #110 ) ) ;
#101 = ORIENTED_EDGE ( 'NONE', *, *, #99, .F. ) ;
#102 = VERTEX_POINT ( 'NONE', #338 ) ;
#103 = EDGE_CURVE ( 'NONE', #16, #102, #317, .T. ) ;
#104 = ORIENTED_EDGE ( 'NONE', *, *, #46, .F. ) ;
#105 = ORIENTED_EDGE ( 'NONE', *, *, #108, .F. ) ;
#106 = ADVANCED_FACE ( 'NONE', ( #301 ), #312, .F. ) ;
#107 = ORIENTED_EDGE ( 'NONE', *, *, #109, .F. ) ;
#108 = EDGE_CURVE ( 'NONE', #102, #7, #313, .T. ) ;
#109 = EDGE_CURVE ( 'NONE', #102, #16, #339, .T. ) ;
#110 = ORIENTED_EDGE ( 'NONE', *, *, #35, .F. ) ;
#111 = ORIENTED_EDGE ( 'NONE', *, *, #108, .T. ) ;
#112 = EDGE_CURVE ( 'NONE', #7, #114, #327, .T. ) ;
#113 = ORIENTED_EDGE ( 'NONE', *, *, #23, .T. ) ;
#114 = VERTEX_POINT ( 'NONE', #328 ) ;
#115 = EDGE_CURVE ( 'NONE', #20, #28, #325, .T. ) ;
#116 = VERTEX_POINT ( 'NONE', #262 ) ;
#117 = VERTEX_POINT ( 'NONE', #257 ) ;
#118 = DIRECTION ( 'NONE',  ( -1.000000000000000000, 0.0000000000000000000, 0.0000000000000000000 ) ) ;
#119 = LINE ( 'NONE', #234, #149 ) ;
#120 = CARTESIAN_POINT ( 'NONE',  ( -10.50000000000000000, 0.0000000000000000000, 0.0000000000000000000 ) ) ;
#121 = DIRECTION ( 'NONE',  ( -0.0000000000000000000, -0.0000000000000000000, 1.000000000000000000 ) ) ;
#122 = AXIS2_PLACEMENT_3D ( 'NONE', #189, #225, #224 ) ;
#123 = CARTESIAN_POINT ( 'NONE',  ( 0.0000000000000000000, 0.0000000000000000000, -25.00000000000000000 ) ) ;
#124 = FACE_BOUND ( 'NONE', #14, .T. ) ;
#125 = DIRECTION ( 'NONE',  ( 1.000000000000000000, 0.0000000000000000000, 0.0000000000000000000 ) ) ;
#126 = AXIS2_PLACEMENT_3D ( 'NONE', #255, #152, #125 ) ;
#127 = PLANE ( 'NONE',  #214 ) ;
#128 = FACE_OUTER_BOUND ( 'NONE', #77, .T. ) ;
#129 = CIRCLE ( 'NONE', #198, 7.000000000000000000 ) ;
#130 = CYLINDRICAL_SURFACE ( 'NONE', #122, 11.00000000000000000 ) ;
#131 = LINE ( 'NONE', #142, #141 ) ;
#132 = DIRECTION ( 'NONE',  ( -0.0000000000000000000, -0.0000000000000000000, -1.000000000000000000 ) ) ;
#133 = VECTOR ( 'NONE', #132, 1000.000000000000000 ) ;
#134 = CARTESIAN_POINT ( 'NONE',  ( -4.250000000000000000, 0.0000000000000000000, 0.001000000000001000100 ) ) ;
#135 = LINE ( 'NONE', #134, #133 ) ;
#136 = DIRECTION ( 'NONE',  ( -1.000000000000000000, 0.0000000000000000000, 0.0000000000000000000 ) ) ;
#137 = DIRECTION ( 'NONE',  ( 1.000000000000000000, 0.0000000000000000000, 0.0000000000000000000 ) ) ;
#138 = CARTESIAN_POINT ( 'NONE',  ( 11.00000000000000000, 0.0000000000000000000, -25.00000000000000000 ) ) ;
#139 = LINE ( 'NONE', #138, #237 ) ;
#140 = DIRECTION ( 'NONE',  ( 1.000000000000000000, 0.0000000000000000000, 0.0000000000000000000 ) ) ;
#141 = VECTOR ( 'NONE', #188, 999.9999999999998900 ) ;
#142 = CARTESIAN_POINT ( 'NONE',  ( -10.50000000000000000, 0.0000000000000000000, 0.0000000000000000000 ) ) ;
#143 = DIRECTION ( 'NONE',  ( 1.000000000000000000, 0.0000000000000000000, 0.0000000000000000000 ) ) ;
#144 = DIRECTION ( 'NONE',  ( 0.0000000000000000000, 0.0000000000000000000, 1.000000000000000000 ) ) ;
#145 = CARTESIAN_POINT ( 'NONE',  ( 0.0000000000000000000, 0.0000000000000000000, -9.000000000000000000 ) ) ;
#146 = AXIS2_PLACEMENT_3D ( 'NONE', #145, #144, #143 ) ;
#147 = CIRCLE ( 'NONE', #146, 7.000000000000000000 ) ;
#148 = CIRCLE ( 'NONE', #184, 10.50000000000000000 ) ;
#149 = VECTOR ( 'NONE', #121, 1000.000000000000000 ) ;
#150 = DIRECTION ( 'NONE',  ( 0.0000000000000000000, 0.0000000000000000000, 1.000000000000000000 ) ) ;
#151 = VECTOR ( 'NONE', #150, 1000.000000000000000 ) ;
#152 = DIRECTION ( 'NONE',  ( 0.0000000000000000000, 0.0000000000000000000, 1.000000000000000000 ) ) ;
#153 = AXIS2_PLACEMENT_3D ( 'NONE', #206, #205, #204 ) ;
#154 = CARTESIAN_POINT ( 'NONE',  ( -11.00000000000000000, 1.347111479062088400E-015, -25.00000000000000000 ) ) ;
#155 = AXIS2_PLACEMENT_3D ( 'NONE', #123, #212, #211 ) ;
#156 = CARTESIAN_POINT ( 'NONE',  ( 4.250000000000000000, 5.204748896376250700E-016, -25.00000000000000000 ) ) ;
#157 = CARTESIAN_POINT ( 'NONE',  ( 10.50000000000000000, 1.316495309083404600E-015, 0.0000000000000000000 ) ) ;
#158 = FACE_BOUND ( 'NONE', #75, .T. ) ;
#159 =( GEOMETRIC_REPRESENTATION_CONTEXT ( 3 ) GLOBAL_UNCERTAINTY_ASSIGNED_CONTEXT ( ( #160 ) ) GLOBAL_UNIT_ASSIGNED_CONTEXT ( ( #230, #229, #228 ) ) REPRESENTATION_CONTEXT ( 'NONE', 'WORKASPACE' ) );
#160 = UNCERTAINTY_MEASURE_WITH_UNIT (LENGTH_MEASURE( 1.000000000000000100E-005 ), #230, 'distance_accuracy_value', 'NONE');
#161 = DIRECTION ( 'NONE',  ( 0.0000000000000000000, 0.0000000000000000000, -1.000000000000000000 ) ) ;
#162 = CARTESIAN_POINT ( 'NONE',  ( -4.250000000000000000, 0.0000000000000000000, -9.000000000000000000 ) ) ;
#163 = CIRCLE ( 'NONE', #240, 11.00000000000000000 ) ;
#164 = DIRECTION ( 'NONE',  ( 1.000000000000000000, 0.0000000000000000000, 0.0000000000000000000 ) ) ;
#165 = CONICAL_SURFACE ( 'NONE', #256, 10.50000000000000000, 0.7853981633974465000 ) ;
#166 = CARTESIAN_POINT ( 'NONE',  ( -7.000000000000000000, 8.572527594031473200E-016, -9.000000000000000000 ) ) ;
#167 = CARTESIAN_POINT ( 'NONE',  ( 7.000000000000000000, 0.0000000000000000000, -9.000000000000000000 ) ) ;
#168 = DIRECTION ( 'NONE',  ( -0.0000000000000000000, -0.0000000000000000000, 1.000000000000000000 ) ) ;
#169 = VECTOR ( 'NONE', #168, 1000.000000000000000 ) ;
#170 = FACE_OUTER_BOUND ( 'NONE', #40, .T. ) ;
#171 = DIRECTION ( 'NONE',  ( 1.000000000000000000, 0.0000000000000000000, 0.0000000000000000000 ) ) ;
#172 = DIRECTION ( 'NONE',  ( 0.0000000000000000000, 0.0000000000000000000, 1.000000000000000000 ) ) ;
#173 = AXIS2_PLACEMENT_3D ( 'NONE', #243, #176, #137 ) ;
#174 = DIRECTION ( 'NONE',  ( -1.000000000000000000, 0.0000000000000000000, 0.0000000000000000000 ) ) ;
#175 = AXIS2_PLACEMENT_3D ( 'NONE', #180, #190, #174 ) ;
#176 = DIRECTION ( 'NONE',  ( 0.0000000000000000000, 0.0000000000000000000, 1.000000000000000000 ) ) ;
#177 = AXIS2_PLACEMENT_3D ( 'NONE', #248, #247, #246 ) ;
#178 = CIRCLE ( 'NONE', #177, 11.00000000000000000 ) ;
#179 = FACE_OUTER_BOUND ( 'NONE', #44, .T. ) ;
#180 = CARTESIAN_POINT ( 'NONE',  ( 0.0000000000000000000, 0.0000000000000000000, -25.00000000000000000 ) ) ;
#181 = FACE_OUTER_BOUND ( 'NONE', #17, .T. ) ;
#182 = DIRECTION ( 'NONE',  ( 0.0000000000000000000, 0.0000000000000000000, 1.000000000000000000 ) ) ;
#183 = AXIS2_PLACEMENT_3D ( 'NONE', #241, #227, #164 ) ;
#184 = AXIS2_PLACEMENT_3D ( 'NONE', #187, #172, #171 ) ;
#185 = CIRCLE ( 'NONE', #219, 7.000000000000000000 ) ;
#186 = DIRECTION ( 'NONE',  ( -0.0000000000000000000, -0.0000000000000000000, -1.000000000000000000 ) ) ;
#187 = CARTESIAN_POINT ( 'NONE',  ( 0.0000000000000000000, 0.0000000000000000000, 0.0000000000000000000 ) ) ;
#188 = DIRECTION ( 'NONE',  ( -0.7071067811865462400, 0.0000000000000000000, -0.7071067811865489100 ) ) ;
#189 = CARTESIAN_POINT ( 'NONE',  ( 0.0000000000000000000, 0.0000000000000000000, -25.00000000000000000 ) ) ;
#190 = DIRECTION ( 'NONE',  ( 0.0000000000000000000, 0.0000000000000000000, -1.000000000000000000 ) ) ;
#191 = PRESENTATION_STYLE_ASSIGNMENT (( #192 ) ) ;
#192 = SURFACE_STYLE_USAGE ( .BOTH. , #193 ) ;
#193 = SURFACE_SIDE_STYLE ('',( #202 ) ) ;
#194 = COLOUR_RGB ( '',0.5019607843137254800, 0.5019607843137254800, 0.5019607843137254800 ) ;
#195 = DIRECTION ( 'NONE',  ( 1.000000000000000000, 0.0000000000000000000, 0.0000000000000000000 ) ) ;
#196 = DIRECTION ( 'NONE',  ( 0.0000000000000000000, 0.0000000000000000000, 1.000000000000000000 ) ) ;
#197 = CARTESIAN_POINT ( 'NONE',  ( 0.0000000000000000000, 0.0000000000000000000, 0.0000000000000000000 ) ) ;
#198 = AXIS2_PLACEMENT_3D ( 'NONE', #197, #196, #195 ) ;
#199 = DIRECTION ( 'NONE',  ( 1.000000000000000000, 0.0000000000000000000, -0.0000000000000000000 ) ) ;
#200 = DIRECTION ( 'NONE',  ( 0.0000000000000000000, 0.0000000000000000000, 1.000000000000000000 ) ) ;
#201 = FACE_OUTER_BOUND ( 'NONE', #63, .T. ) ;
#202 = SURFACE_STYLE_FILL_AREA ( #203 ) ;
#203 = FILL_AREA_STYLE ('',( #208 ) ) ;
#204 = DIRECTION ( 'NONE',  ( 1.000000000000000000, 0.0000000000000000000, 0.0000000000000000000 ) ) ;
#205 = DIRECTION ( 'NONE',  ( -0.0000000000000000000, -0.0000000000000000000, 1.000000000000000000 ) ) ;
#206 = CARTESIAN_POINT ( 'NONE',  ( 0.0000000000000000000, 0.0000000000000000000, -9.000000000000000000 ) ) ;
#207 = FACE_BOUND ( 'NONE', #93, .T. ) ;
#208 = FILL_AREA_STYLE_COLOUR ( '', #194 ) ;
#209 = FACE_OUTER_BOUND ( 'NONE', #89, .T. ) ;
#210 = CYLINDRICAL_SURFACE ( 'NONE', #153, 7.000000000000000000 ) ;
#211 = DIRECTION ( 'NONE',  ( 1.000000000000000000, 0.0000000000000000000, -0.0000000000000000000 ) ) ;
#212 = DIRECTION ( 'NONE',  ( 0.0000000000000000000, 0.0000000000000000000, 1.000000000000000000 ) ) ;
#213 = CARTESIAN_POINT ( 'NONE',  ( 0.0000000000000000000, 0.0000000000000000000, 0.0000000000000000000 ) ) ;
#214 = AXIS2_PLACEMENT_3D ( 'NONE', #213, #200, #199 ) ;
#215 = FACE_OUTER_BOUND ( 'NONE', #34, .T. ) ;
#216 = CARTESIAN_POINT ( 'NONE',  ( 0.0000000000000000000, 0.0000000000000000000, 0.0000000000000000000 ) ) ;
#217 = DIRECTION ( 'NONE',  ( 0.0000000000000000000, 0.0000000000000000000, 1.000000000000000000 ) ) ;
#218 = CARTESIAN_POINT ( 'NONE',  ( 0.0000000000000000000, 0.0000000000000000000, 0.0000000000000000000 ) ) ;
#219 = AXIS2_PLACEMENT_3D ( 'NONE', #218, #217, #140 ) ;
#220 = FACE_OUTER_BOUND ( 'NONE', #36, .T. ) ;
#221 = CIRCLE ( 'NONE', #175, 4.250000000000000000 ) ;
#222 = CARTESIAN_POINT ( 'NONE',  ( 0.0000000000000000000, 0.0000000000000000000, -25.00000000000000000 ) ) ;
#223 = AXIS2_PLACEMENT_3D ( 'NONE', #238, #186, #136 ) ;
#224 = DIRECTION ( 'NONE',  ( 1.000000000000000000, 0.0000000000000000000, 0.0000000000000000000 ) ) ;
#225 = DIRECTION ( 'NONE',  ( 0.0000000000000000000, 0.0000000000000000000, 1.000000000000000000 ) ) ;
#226 = LINE ( 'NONE', #166, #169 ) ;
#227 = DIRECTION ( 'NONE',  ( -0.0000000000000000000, -0.0000000000000000000, 1.000000000000000000 ) ) ;
#228 =( NAMED_UNIT ( * ) SI_UNIT ( $, .STERADIAN. ) SOLID_ANGLE_UNIT ( ) );
#229 =( NAMED_UNIT ( * ) PLANE_ANGLE_UNIT ( ) SI_UNIT ( $, .RADIAN. ) );
#230 =( LENGTH_UNIT ( ) NAMED_UNIT ( * ) SI_UNIT ( .MILLI., .METRE. ) );
#231 = MECHANICAL_DESIGN_GEOMETRIC_PRESENTATION_REPRESENTATION (  '', ( #233 ), #159 ) ;
#232 = PRESENTATION_LAYER_ASSIGNMENT (  '', '', ( #233 ) ) ;
#233 = STYLED_ITEM ( 'NONE', ( #191 ), #74 ) ;
#234 = CARTESIAN_POINT ( 'NONE',  ( 7.000000000000000000, 0.0000000000000000000, -9.000000000000000000 ) ) ;
#235 = DIRECTION ( 'NONE',  ( -1.000000000000000000, 0.0000000000000000000, 0.0000000000000000000 ) ) ;
#236 = CYLINDRICAL_SURFACE ( 'NONE', #223, 4.250000000000000000 ) ;
#237 = VECTOR ( 'NONE', #249, 1000.000000000000000 ) ;
#238 = CARTESIAN_POINT ( 'NONE',  ( 0.0000000000000000000, 0.0000000000000000000, 0.001000000000001000100 ) ) ;
#239 = DIRECTION ( 'NONE',  ( 1.000000000000000000, 0.0000000000000000000, 0.0000000000000000000 ) ) ;
#240 = AXIS2_PLACEMENT_3D ( 'NONE', #222, #182, #239 ) ;
#241 = CARTESIAN_POINT ( 'NONE',  ( 0.0000000000000000000, 0.0000000000000000000, -9.000000000000000000 ) ) ;
#242 = CYLINDRICAL_SURFACE ( 'NONE', #183, 7.000000000000000000 ) ;
#243 = CARTESIAN_POINT ( 'NONE',  ( 0.0000000000000000000, 0.0000000000000000000, -25.00000000000000000 ) ) ;
#244 = PLANE ( 'NONE',  #155 ) ;
#245 = FACE_OUTER_BOUND ( 'NONE', #64, .T. ) ;
#246 = DIRECTION ( 'NONE',  ( 1.000000000000000000, 0.0000000000000000000, 0.0000000000000000000 ) ) ;
#247 = DIRECTION ( 'NONE',  ( 0.0000000000000000000, 0.0000000000000000000, -1.000000000000000000 ) ) ;
#248 = CARTESIAN_POINT ( 'NONE',  ( 0.0000000000000000000, 0.0000000000000000000, -0.5000000000000004400 ) ) ;
#249 = DIRECTION ( 'NONE',  ( 0.0000000000000000000, 0.0000000000000000000, 1.000000000000000000 ) ) ;
#250 = CARTESIAN_POINT ( 'NONE',  ( -7.000000000000000000, 8.572527594031473200E-016, -9.000000000000000000 ) ) ;
#251 = CYLINDRICAL_SURFACE ( 'NONE', #173, 11.00000000000000000 ) ;
#252 = CIRCLE ( 'NONE', #126, 11.00000000000000000 ) ;
#253 = CARTESIAN_POINT ( 'NONE',  ( -11.00000000000000000, 1.347111479062088400E-015, -25.00000000000000000 ) ) ;
#254 = LINE ( 'NONE', #154, #151 ) ;
#255 = CARTESIAN_POINT ( 'NONE',  ( 0.0000000000000000000, 0.0000000000000000000, -25.00000000000000000 ) ) ;
#256 = AXIS2_PLACEMENT_3D ( 'NONE', #216, #161, #235 ) ;
#257 = CARTESIAN_POINT ( 'NONE',  ( 7.000000000000000000, 0.0000000000000000000, 0.0000000000000000000 ) ) ;
#258 = DIRECTION ( 'NONE',  ( -1.000000000000000000, 0.0000000000000000000, 0.0000000000000000000 ) ) ;
#259 = DIRECTION ( 'NONE',  ( 0.0000000000000000000, 0.0000000000000000000, -1.000000000000000000 ) ) ;
#260 = AXIS2_PLACEMENT_3D ( 'NONE', #326, #259, #258 ) ;
#261 = DIRECTION ( 'NONE',  ( 0.7071067811865462400, 8.659560562354918100E-017, -0.7071067811865489100 ) ) ;
#262 = CARTESIAN_POINT ( 'NONE',  ( -7.000000000000000000, 8.572527594031473200E-016, 0.0000000000000000000 ) ) ;
#263 = DIRECTION ( 'NONE',  ( 1.000000000000000000, 0.0000000000000000000, 0.0000000000000000000 ) ) ;
#264 = DIRECTION ( 'NONE',  ( -0.0000000000000000000, -0.0000000000000000000, -1.000000000000000000 ) ) ;
#265 = VECTOR ( 'NONE', #261, 999.9999999999998900 ) ;
#266 = DIRECTION ( 'NONE',  ( -0.0000000000000000000, -0.0000000000000000000, -1.000000000000000000 ) ) ;
#267 = AXIS2_PLACEMENT_3D ( 'NONE', #290, #342, #341 ) ;
#268 =( NAMED_UNIT ( * ) PLANE_ANGLE_UNIT ( ) SI_UNIT ( $, .RADIAN. ) );
#269 = AXIS2_PLACEMENT_3D ( 'NONE', #336, #340, #334 ) ;
#270 = SURFACE_STYLE_USAGE ( .BOTH. , #271 ) ;
#271 = SURFACE_SIDE_STYLE ('',( #288 ) ) ;
#272 = CARTESIAN_POINT ( 'NONE',  ( 0.0000000000000000000, 0.0000000000000000000, -9.000000000000000000 ) ) ;
#273 = LINE ( 'NONE', #337, #265 ) ;
#274 = AXIS2_PLACEMENT_3D ( 'NONE', #343, #292, #297 ) ;
#275 =( GEOMETRIC_REPRESENTATION_CONTEXT ( 3 ) GLOBAL_UNCERTAINTY_ASSIGNED_CONTEXT ( ( #310 ) ) GLOBAL_UNIT_ASSIGNED_CONTEXT ( ( #306, #268, #311 ) ) REPRESENTATION_CONTEXT ( 'NONE', 'WORKASPACE' ) );
#276 = PRODUCT_DEFINITION_SHAPE ( 'NONE', 'NONE',  #279 ) ;
#277 = PRODUCT_RELATED_PRODUCT_CATEGORY ( 'part', '', ( #284 ) ) ;
#278 = PRODUCT_DEFINITION_FORMATION_WITH_SPECIFIED_SOURCE ( 'ANY', '', #284, .NOT_KNOWN. ) ;
#279 = PRODUCT_DEFINITION ( 'UNKNOWN', '', #278, #280 ) ;
#280 = PRODUCT_DEFINITION_CONTEXT ( 'detailed design', #283, 'design' ) ;
#281 = VECTOR ( 'NONE', #344, 1000.000000000000000 ) ;
#282 = APPLICATION_PROTOCOL_DEFINITION ( 'draft international standard', 'automotive_design', 1998, #283 ) ;
#283 = APPLICATION_CONTEXT ( 'automotive_design' ) ;
#284 = PRODUCT ( '600-204', '600-204', '', ( #285 ) ) ;
#285 = PRODUCT_CONTEXT ( 'NONE', #296, 'mechanical' ) ;
#286 = APPLICATION_PROTOCOL_DEFINITION ( 'draft international standard', 'automotive_design', 1998, #296 ) ;
#287 = AXIS2_PLACEMENT_3D ( 'NONE', #300, #309, #299 ) ;
#288 = SURFACE_STYLE_FILL_AREA ( #289 ) ;
#289 = FILL_AREA_STYLE ('',( #314 ) ) ;
#290 = CARTESIAN_POINT ( 'NONE',  ( 0.0000000000000000000, 0.0000000000000000000, -9.000000000000000000 ) ) ;
#291 = CARTESIAN_POINT ( 'NONE',  ( 11.00000000000000000, 0.0000000000000000000, -25.00000000000000000 ) ) ;
#292 = DIRECTION ( 'NONE',  ( 0.0000000000000000000, 0.0000000000000000000, 1.000000000000000000 ) ) ;
#293 = DIRECTION ( 'NONE',  ( 0.0000000000000000000, 0.0000000000000000000, 1.000000000000000000 ) ) ;
#294 = CARTESIAN_POINT ( 'NONE',  ( 0.0000000000000000000, 0.0000000000000000000, -9.000000000000000000 ) ) ;
#295 = AXIS2_PLACEMENT_3D ( 'NONE', #294, #293, #323 ) ;
#296 = APPLICATION_CONTEXT ( 'automotive_design' ) ;
#297 = DIRECTION ( 'NONE',  ( 1.000000000000000000, 0.0000000000000000000, 0.0000000000000000000 ) ) ;
#298 = CARTESIAN_POINT ( 'NONE',  ( 0.0000000000000000000, 0.0000000000000000000, 0.001000000000001000100 ) ) ;
#299 = DIRECTION ( 'NONE',  ( 1.000000000000000000, 0.0000000000000000000, 0.0000000000000000000 ) ) ;
#300 = CARTESIAN_POINT ( 'NONE',  ( 0.0000000000000000000, 0.0000000000000000000, -0.5000000000000004400 ) ) ;
#301 = FACE_OUTER_BOUND ( 'NONE', #100, .T. ) ;
#302 = DIRECTION ( 'NONE',  ( -1.000000000000000000, 0.0000000000000000000, 0.0000000000000000000 ) ) ;
#303 = CARTESIAN_POINT ( 'NONE',  ( 11.00000000000000000, 0.0000000000000000000, -0.5000000000000004400 ) ) ;
#304 =( LENGTH_UNIT ( ) NAMED_UNIT ( * ) SI_UNIT ( .MILLI., .METRE. ) );
#305 = CIRCLE ( 'NONE', #269, 10.50000000000000000 ) ;
#306 =( LENGTH_UNIT ( ) NAMED_UNIT ( * ) SI_UNIT ( .MILLI., .METRE. ) );
#307 = MECHANICAL_DESIGN_GEOMETRIC_PRESENTATION_REPRESENTATION (  '', ( #332 ), #275 ) ;
#308 = CARTESIAN_POINT ( 'NONE',  ( 4.250000000000000000, 5.204748896376250700E-016, 0.001000000000001000100 ) ) ;
#309 = DIRECTION ( 'NONE',  ( 0.0000000000000000000, 0.0000000000000000000, -1.000000000000000000 ) ) ;
#310 = UNCERTAINTY_MEASURE_WITH_UNIT (LENGTH_MEASURE( 1.000000000000000100E-005 ), #306, 'distance_accuracy_value', 'NONE');
#311 =( NAMED_UNIT ( * ) SI_UNIT ( $, .STERADIAN. ) SOLID_ANGLE_UNIT ( ) );
#312 = CYLINDRICAL_SURFACE ( 'NONE', #321, 4.250000000000000000 ) ;
#313 = LINE ( 'NONE', #308, #281 ) ;
#314 = FILL_AREA_STYLE_COLOUR ( '', #315 ) ;
#315 = COLOUR_RGB ( '',0.5019607843137254800, 0.5019607843137254800, 0.5019607843137254800 ) ;
#316 = SHAPE_DEFINITION_REPRESENTATION ( #276, #329 ) ;
#317 = CIRCLE ( 'NONE', #267, 4.250000000000000000 ) ;
#318 = AXIS2_PLACEMENT_3D ( 'NONE', #272, #264, #263 ) ;
#319 =( NAMED_UNIT ( * ) SI_UNIT ( $, .STERADIAN. ) SOLID_ANGLE_UNIT ( ) );
#320 =( NAMED_UNIT ( * ) PLANE_ANGLE_UNIT ( ) SI_UNIT ( $, .RADIAN. ) );
#321 = AXIS2_PLACEMENT_3D ( 'NONE', #298, #266, #302 ) ;
#322 = CIRCLE ( 'NONE', #287, 11.00000000000000000 ) ;
#323 = DIRECTION ( 'NONE',  ( 1.000000000000000000, 0.0000000000000000000, 0.0000000000000000000 ) ) ;
#324 = CARTESIAN_POINT ( 'NONE',  ( -11.00000000000000000, 1.347111479062088400E-015, -0.5000000000000004400 ) ) ;
#325 = CIRCLE ( 'NONE', #295, 7.000000000000000000 ) ;
#326 = CARTESIAN_POINT ( 'NONE',  ( 0.0000000000000000000, 0.0000000000000000000, -25.00000000000000000 ) ) ;
#327 = CIRCLE ( 'NONE', #260, 4.250000000000000000 ) ;
#328 = CARTESIAN_POINT ( 'NONE',  ( -4.250000000000000000, 0.0000000000000000000, -25.00000000000000000 ) ) ;
#329 = ADVANCED_BREP_SHAPE_REPRESENTATION ( '600-204', ( #74, #274 ), #330 ) ;
#330 =( GEOMETRIC_REPRESENTATION_CONTEXT ( 3 ) GLOBAL_UNCERTAINTY_ASSIGNED_CONTEXT ( ( #335 ) ) GLOBAL_UNIT_ASSIGNED_CONTEXT ( ( #304, #320, #319 ) ) REPRESENTATION_CONTEXT ( 'NONE', 'WORKASPACE' ) );
#331 = PRESENTATION_LAYER_ASSIGNMENT (  '', '', ( #332 ) ) ;
#332 = STYLED_ITEM ( 'NONE', ( #333 ), #329 ) ;
#333 = PRESENTATION_STYLE_ASSIGNMENT (( #270 ) ) ;
#334 = DIRECTION ( 'NONE',  ( 1.000000000000000000, 0.0000000000000000000, 0.0000000000000000000 ) ) ;
#335 = UNCERTAINTY_MEASURE_WITH_UNIT (LENGTH_MEASURE( 1.000000000000000100E-005 ), #304, 'distance_accuracy_value', 'NONE');
#336 = CARTESIAN_POINT ( 'NONE',  ( 0.0000000000000000000, 0.0000000000000000000, 0.0000000000000000000 ) ) ;
#337 = CARTESIAN_POINT ( 'NONE',  ( 10.50000000000000000, 1.285879139104720800E-015, 0.0000000000000000000 ) ) ;
#338 = CARTESIAN_POINT ( 'NONE',  ( 4.250000000000000000, 5.204748896376250700E-016, -9.000000000000000000 ) ) ;
#339 = CIRCLE ( 'NONE', #318, 4.250000000000000000 ) ;
#340 = DIRECTION ( 'NONE',  ( 0.0000000000000000000, 0.0000000000000000000, 1.000000000000000000 ) ) ;
#341 = DIRECTION ( 'NONE',  ( 1.000000000000000000, 0.0000000000000000000, 0.0000000000000000000 ) ) ;
#342 = DIRECTION ( 'NONE',  ( -0.0000000000000000000, -0.0000000000000000000, -1.000000000000000000 ) ) ;
#343 = CARTESIAN_POINT ( 'NONE',  ( 0.0000000000000000000, 0.0000000000000000000, 0.0000000000000000000 ) ) ;
#344 = DIRECTION ( 'NONE',  ( -0.0000000000000000000, -0.0000000000000000000, -1.000000000000000000 ) ) ;
ENDSEC;
END-ISO-10303-21;
