ISO-10303-21;
HEADER;
FILE_DESCRIPTION (( 'STEP AP203' ),
    '1' );
FILE_NAME ('WDS-600-203.step',
    '2012-04-05T13:13:04',
    ( 'sysAdmin' ),
    ( 'SolidWorks' ),
    'SwSTEP 2.0',
    'SolidWorks 2012',
    '' );
FILE_SCHEMA (( 'CONFIG_CONTROL_DESIGN' ));
ENDSEC;

DATA;
#1 =( GEOMETRIC_REPRESENTATION_CONTEXT ( 3 ) GLOBAL_UNCERTAINTY_ASSIGNED_CONTEXT ( ( #139 ) ) GLOBAL_UNIT_ASSIGNED_CONTEXT ( ( #142, #141, #140 ) ) REPRESENTATION_CONTEXT ( 'NONE', 'WORKASPACE' ) );
#2 = ADVANCED_BREP_SHAPE_REPRESENTATION ( 'WDS-600-203', ( #15, #309 ), #1 ) ;
#3 = DIRECTION ( 'NONE',  ( 0.0000000000000000000, 0.0000000000000000000, 1.000000000000000000 ) ) ;
#4 = CARTESIAN_POINT ( 'NONE',  ( 0.0000000000000000000, 0.0000000000000000000, 0.0000000000000000000 ) ) ;
#5 = CIRCLE ( 'NONE', #6, 10.49999999999999800 ) ;
#6 = AXIS2_PLACEMENT_3D ( 'NONE', #4, #3, #7 ) ;
#7 = DIRECTION ( 'NONE',  ( 1.000000000000000000, 0.0000000000000000000, 0.0000000000000000000 ) ) ;
#8 = EDGE_CURVE ( 'NONE', #24, #32, #5, .T. ) ;
#9 = EDGE_LOOP ( 'NONE', ( #51, #49 ) ) ;
#10 = ORIENTED_EDGE ( 'NONE', *, *, #8, .T. ) ;
#11 = EDGE_CURVE ( 'NONE', #21, #71, #187, .T. ) ;
#12 = ORIENTED_EDGE ( 'NONE', *, *, #77, .F. ) ;
#13 = ORIENTED_EDGE ( 'NONE', *, *, #83, .F. ) ;
#14 = EDGE_LOOP ( 'NONE', ( #61, #60 ) ) ;
#15 = MANIFOLD_SOLID_BREP ( 'Cut-Extrude3', #44 ) ;
#16 = EDGE_CURVE ( 'NONE', #35, #108, #215, .T. ) ;
#17 = VERTEX_POINT ( 'NONE', #217 ) ;
#18 = VERTEX_POINT ( 'NONE', #189 ) ;
#19 = ADVANCED_FACE ( 'NONE', ( #216 ), #186, .T. ) ;
#20 = EDGE_LOOP ( 'NONE', ( #104, #109, #76, #80 ) ) ;
#21 = VERTEX_POINT ( 'NONE', #204 ) ;
#22 = EDGE_LOOP ( 'NONE', ( #36, #98, #103, #102 ) ) ;
#23 = VERTEX_POINT ( 'NONE', #211 ) ;
#24 = VERTEX_POINT ( 'NONE', #190 ) ;
#25 = EDGE_LOOP ( 'NONE', ( #72, #88, #90, #94 ) ) ;
#26 = VERTEX_POINT ( 'NONE', #210 ) ;
#27 = EDGE_CURVE ( 'NONE', #71, #23, #198, .T. ) ;
#28 = VERTEX_POINT ( 'NONE', #206 ) ;
#29 = VERTEX_POINT ( 'NONE', #199 ) ;
#30 = ORIENTED_EDGE ( 'NONE', *, *, #27, .T. ) ;
#31 = EDGE_CURVE ( 'NONE', #23, #26, #194, .T. ) ;
#32 = VERTEX_POINT ( 'NONE', #191 ) ;
#33 = EDGE_CURVE ( 'NONE', #21, #26, #178, .T. ) ;
#34 = ORIENTED_EDGE ( 'NONE', *, *, #33, .F. ) ;
#35 = VERTEX_POINT ( 'NONE', #200 ) ;
#36 = ORIENTED_EDGE ( 'NONE', *, *, #100, .T. ) ;
#37 = ADVANCED_FACE ( 'NONE', ( #201 ), #192, .T. ) ;
#38 = EDGE_CURVE ( 'NONE', #28, #84, #166, .T. ) ;
#39 = ORIENTED_EDGE ( 'NONE', *, *, #92, .F. ) ;
#40 = ORIENTED_EDGE ( 'NONE', *, *, #83, .T. ) ;
#41 = EDGE_LOOP ( 'NONE', ( #13, #12 ) ) ;
#42 = ADVANCED_FACE ( 'NONE', ( #171 ), #169, .T. ) ;
#43 = ORIENTED_EDGE ( 'NONE', *, *, #101, .T. ) ;
#44 = CLOSED_SHELL ( 'NONE', ( #73, #37, #19, #107, #82, #42, #69, #55, #63, #66, #113 ) ) ;
#45 = ORIENTED_EDGE ( 'NONE', *, *, #33, .T. ) ;
#46 = ORIENTED_EDGE ( 'NONE', *, *, #16, .T. ) ;
#47 = EDGE_LOOP ( 'NONE', ( #48, #46 ) ) ;
#48 = ORIENTED_EDGE ( 'NONE', *, *, #92, .T. ) ;
#49 = ORIENTED_EDGE ( 'NONE', *, *, #70, .T. ) ;
#50 = EDGE_LOOP ( 'NONE', ( #56, #52 ) ) ;
#51 = ORIENTED_EDGE ( 'NONE', *, *, #11, .T. ) ;
#52 = ORIENTED_EDGE ( 'NONE', *, *, #31, .F. ) ;
#53 = ORIENTED_EDGE ( 'NONE', *, *, #85, .F. ) ;
#54 = EDGE_LOOP ( 'NONE', ( #10, #59 ) ) ;
#55 = ADVANCED_FACE ( 'NONE', ( #156, #157 ), #168, .T. ) ;
#56 = ORIENTED_EDGE ( 'NONE', *, *, #57, .F. ) ;
#57 = EDGE_CURVE ( 'NONE', #26, #23, #239, .T. ) ;
#58 = EDGE_LOOP ( 'NONE', ( #53, #62, #64, #65 ) ) ;
#59 = ORIENTED_EDGE ( 'NONE', *, *, #86, .T. ) ;
#60 = ORIENTED_EDGE ( 'NONE', *, *, #81, .F. ) ;
#61 = ORIENTED_EDGE ( 'NONE', *, *, #100, .F. ) ;
#62 = ORIENTED_EDGE ( 'NONE', *, *, #8, .F. ) ;
#63 = ADVANCED_FACE ( 'NONE', ( #170 ), #240, .T. ) ;
#64 = ORIENTED_EDGE ( 'NONE', *, *, #91, .T. ) ;
#65 = ORIENTED_EDGE ( 'NONE', *, *, #38, .F. ) ;
#66 = ADVANCED_FACE ( 'NONE', ( #234, #237 ), #172, .T. ) ;
#67 = ORIENTED_EDGE ( 'NONE', *, *, #70, .F. ) ;
#68 = EDGE_LOOP ( 'NONE', ( #67, #30, #74, #34 ) ) ;
#69 = ADVANCED_FACE ( 'NONE', ( #232, #230 ), #225, .F. ) ;
#70 = EDGE_CURVE ( 'NONE', #71, #21, #266, .T. ) ;
#71 = VERTEX_POINT ( 'NONE', #235 ) ;
#72 = ORIENTED_EDGE ( 'NONE', *, *, #86, .F. ) ;
#73 = ADVANCED_FACE ( 'NONE', ( #224 ), #247, .F. ) ;
#74 = ORIENTED_EDGE ( 'NONE', *, *, #31, .T. ) ;
#75 = EDGE_CURVE ( 'NONE', #35, #17, #258, .T. ) ;
#76 = ORIENTED_EDGE ( 'NONE', *, *, #77, .T. ) ;
#77 = EDGE_CURVE ( 'NONE', #17, #18, #261, .T. ) ;
#78 = ORIENTED_EDGE ( 'NONE', *, *, #79, .T. ) ;
#79 = EDGE_CURVE ( 'NONE', #108, #18, #137, .T. ) ;
#80 = ORIENTED_EDGE ( 'NONE', *, *, #79, .F. ) ;
#81 = EDGE_CURVE ( 'NONE', #93, #29, #252, .T. ) ;
#82 = ADVANCED_FACE ( 'NONE', ( #131 ), #138, .F. ) ;
#83 = EDGE_CURVE ( 'NONE', #18, #17, #123, .T. ) ;
#84 = VERTEX_POINT ( 'NONE', #126 ) ;
#85 = EDGE_CURVE ( 'NONE', #32, #28, #251, .T. ) ;
#86 = EDGE_CURVE ( 'NONE', #32, #24, #133, .T. ) ;
#87 = EDGE_LOOP ( 'NONE', ( #95, #96, #43, #97 ) ) ;
#88 = ORIENTED_EDGE ( 'NONE', *, *, #85, .T. ) ;
#89 = EDGE_CURVE ( 'NONE', #84, #28, #292, .T. ) ;
#90 = ORIENTED_EDGE ( 'NONE', *, *, #89, .F. ) ;
#91 = EDGE_CURVE ( 'NONE', #24, #84, #294, .T. ) ;
#92 = EDGE_CURVE ( 'NONE', #108, #35, #293, .T. ) ;
#93 = VERTEX_POINT ( 'NONE', #284 ) ;
#94 = ORIENTED_EDGE ( 'NONE', *, *, #91, .F. ) ;
#95 = ORIENTED_EDGE ( 'NONE', *, *, #99, .F. ) ;
#96 = ORIENTED_EDGE ( 'NONE', *, *, #81, .T. ) ;
#97 = ORIENTED_EDGE ( 'NONE', *, *, #38, .T. ) ;
#98 = ORIENTED_EDGE ( 'NONE', *, *, #99, .T. ) ;
#99 = EDGE_CURVE ( 'NONE', #93, #84, #280, .T. ) ;
#100 = EDGE_CURVE ( 'NONE', #29, #93, #273, .T. ) ;
#101 = EDGE_CURVE ( 'NONE', #29, #28, #275, .T. ) ;
#102 = ORIENTED_EDGE ( 'NONE', *, *, #101, .F. ) ;
#103 = ORIENTED_EDGE ( 'NONE', *, *, #89, .T. ) ;
#104 = ORIENTED_EDGE ( 'NONE', *, *, #16, .F. ) ;
#105 = EDGE_LOOP ( 'NONE', ( #106, #39, #78, #40 ) ) ;
#106 = ORIENTED_EDGE ( 'NONE', *, *, #75, .F. ) ;
#107 = ADVANCED_FACE ( 'NONE', ( #278 ), #295, .F. ) ;
#108 = VERTEX_POINT ( 'NONE', #149 ) ;
#109 = ORIENTED_EDGE ( 'NONE', *, *, #75, .T. ) ;
#110 = ORIENTED_EDGE ( 'NONE', *, *, #57, .T. ) ;
#111 = EDGE_LOOP ( 'NONE', ( #112, #114, #45, #110 ) ) ;
#112 = ORIENTED_EDGE ( 'NONE', *, *, #27, .F. ) ;
#113 = ADVANCED_FACE ( 'NONE', ( #147 ), #150, .F. ) ;
#114 = ORIENTED_EDGE ( 'NONE', *, *, #11, .F. ) ;
#115 = DIRECTION ( 'NONE',  ( 0.7071067811865463500, 8.659560562354918100E-017, -0.7071067811865487900 ) ) ;
#116 = VECTOR ( 'NONE', #115, 1000.000000000000000 ) ;
#117 = CARTESIAN_POINT ( 'NONE',  ( 10.49999999999999800, 1.285879139104720600E-015, 0.0000000000000000000 ) ) ;
#118 = AXIS2_PLACEMENT_3D ( 'NONE', #291, #290, #289 ) ;
#119 = AXIS2_PLACEMENT_3D ( 'NONE', #274, #154, #145 ) ;
#120 = DIRECTION ( 'NONE',  ( -1.000000000000000000, 0.0000000000000000000, 0.0000000000000000000 ) ) ;
#121 = DIRECTION ( 'NONE',  ( 0.0000000000000000000, 0.0000000000000000000, -1.000000000000000000 ) ) ;
#122 = CARTESIAN_POINT ( 'NONE',  ( 0.0000000000000000000, 0.0000000000000000000, -16.00000000000000000 ) ) ;
#123 = CIRCLE ( 'NONE', #257, 4.250000000000000000 ) ;
#124 = CARTESIAN_POINT ( 'NONE',  ( 0.0000000000000000000, 0.0000000000000000000, 0.0000000000000000000 ) ) ;
#125 = AXIS2_PLACEMENT_3D ( 'NONE', #124, #297, #296 ) ;
#126 = CARTESIAN_POINT ( 'NONE',  ( -11.00000000000000000, 1.347111479062088400E-015, -0.5000000000000022200 ) ) ;
#127 = CARTESIAN_POINT ( 'NONE',  ( 0.0000000000000000000, 0.0000000000000000000, 0.001000000000001000100 ) ) ;
#128 = DIRECTION ( 'NONE',  ( 1.000000000000000000, 0.0000000000000000000, 0.0000000000000000000 ) ) ;
#129 = DIRECTION ( 'NONE',  ( 0.0000000000000000000, 0.0000000000000000000, 1.000000000000000000 ) ) ;
#130 = CARTESIAN_POINT ( 'NONE',  ( 0.0000000000000000000, 0.0000000000000000000, -16.00000000000000000 ) ) ;
#131 = FACE_OUTER_BOUND ( 'NONE', #105, .T. ) ;
#132 = AXIS2_PLACEMENT_3D ( 'NONE', #127, #241, #253 ) ;
#133 = CIRCLE ( 'NONE', #125, 10.49999999999999800 ) ;
#134 = DIRECTION ( 'NONE',  ( -0.0000000000000000000, -0.0000000000000000000, -1.000000000000000000 ) ) ;
#135 = VECTOR ( 'NONE', #134, 1000.000000000000000 ) ;
#136 = CARTESIAN_POINT ( 'NONE',  ( -4.250000000000000000, 0.0000000000000000000, 0.001000000000001000100 ) ) ;
#137 = LINE ( 'NONE', #136, #135 ) ;
#138 = CYLINDRICAL_SURFACE ( 'NONE', #132, 4.250000000000000000 ) ;
#139 = UNCERTAINTY_MEASURE_WITH_UNIT (LENGTH_MEASURE( 1.000000000000000100E-005 ), #142, 'distance_accuracy_value', 'NONE');
#140 =( NAMED_UNIT ( * ) SI_UNIT ( $, .STERADIAN. ) SOLID_ANGLE_UNIT ( ) );
#141 =( NAMED_UNIT ( * ) PLANE_ANGLE_UNIT ( ) SI_UNIT ( $, .RADIAN. ) );
#142 =( LENGTH_UNIT ( ) NAMED_UNIT ( * ) SI_UNIT ( .MILLI., .METRE. ) );
#143 = DIRECTION ( 'NONE',  ( 1.000000000000000000, 0.0000000000000000000, 0.0000000000000000000 ) ) ;
#144 = DIRECTION ( 'NONE',  ( -0.0000000000000000000, -0.0000000000000000000, 1.000000000000000000 ) ) ;
#145 = DIRECTION ( 'NONE',  ( -1.000000000000000000, 0.0000000000000000000, 0.0000000000000000000 ) ) ;
#146 = AXIS2_PLACEMENT_3D ( 'NONE', #148, #144, #143 ) ;
#147 = FACE_OUTER_BOUND ( 'NONE', #111, .T. ) ;
#148 = CARTESIAN_POINT ( 'NONE',  ( 0.0000000000000000000, 0.0000000000000000000, -9.000000000000000000 ) ) ;
#149 = CARTESIAN_POINT ( 'NONE',  ( -4.250000000000000000, 0.0000000000000000000, -9.000000000000000000 ) ) ;
#150 = CYLINDRICAL_SURFACE ( 'NONE', #146, 7.000000000000000000 ) ;
#151 = DIRECTION ( 'NONE',  ( 0.0000000000000000000, 0.0000000000000000000, 1.000000000000000000 ) ) ;
#152 = VECTOR ( 'NONE', #151, 1000.000000000000000 ) ;
#153 = CARTESIAN_POINT ( 'NONE',  ( 11.00000000000000000, 0.0000000000000000000, -16.00000000000000000 ) ) ;
#154 = DIRECTION ( 'NONE',  ( -0.0000000000000000000, -0.0000000000000000000, -1.000000000000000000 ) ) ;
#155 = DIRECTION ( 'NONE',  ( 1.000000000000000000, 0.0000000000000000000, 0.0000000000000000000 ) ) ;
#156 = FACE_BOUND ( 'NONE', #50, .T. ) ;
#157 = FACE_OUTER_BOUND ( 'NONE', #54, .T. ) ;
#158 = CARTESIAN_POINT ( 'NONE',  ( 0.0000000000000000000, 0.0000000000000000000, 0.0000000000000000000 ) ) ;
#159 = DIRECTION ( 'NONE',  ( 0.0000000000000000000, 0.0000000000000000000, 1.000000000000000000 ) ) ;
#160 = AXIS2_PLACEMENT_3D ( 'NONE', #158, #167, #231 ) ;
#161 = CARTESIAN_POINT ( 'NONE',  ( 0.0000000000000000000, 0.0000000000000000000, 0.0000000000000000000 ) ) ;
#162 = CARTESIAN_POINT ( 'NONE',  ( 0.0000000000000000000, 0.0000000000000000000, -16.00000000000000000 ) ) ;
#163 = DIRECTION ( 'NONE',  ( 1.000000000000000000, 0.0000000000000000000, 0.0000000000000000000 ) ) ;
#164 = DIRECTION ( 'NONE',  ( 0.0000000000000000000, 0.0000000000000000000, -1.000000000000000000 ) ) ;
#165 = CARTESIAN_POINT ( 'NONE',  ( 0.0000000000000000000, 0.0000000000000000000, -0.5000000000000022200 ) ) ;
#166 = CIRCLE ( 'NONE', #202, 11.00000000000000000 ) ;
#167 = DIRECTION ( 'NONE',  ( 0.0000000000000000000, 0.0000000000000000000, -1.000000000000000000 ) ) ;
#168 = PLANE ( 'NONE',  #245 ) ;
#169 = CYLINDRICAL_SURFACE ( 'NONE', #174, 11.00000000000000000 ) ;
#170 = FACE_OUTER_BOUND ( 'NONE', #58, .T. ) ;
#171 = FACE_OUTER_BOUND ( 'NONE', #87, .T. ) ;
#172 = PLANE ( 'NONE',  #236 ) ;
#173 = DIRECTION ( 'NONE',  ( 0.0000000000000000000, 0.0000000000000000000, 1.000000000000000000 ) ) ;
#174 = AXIS2_PLACEMENT_3D ( 'NONE', #162, #173, #155 ) ;
#175 = DIRECTION ( 'NONE',  ( -0.0000000000000000000, -0.0000000000000000000, 1.000000000000000000 ) ) ;
#176 = VECTOR ( 'NONE', #175, 1000.000000000000000 ) ;
#177 = CARTESIAN_POINT ( 'NONE',  ( 7.000000000000000000, 0.0000000000000000000, -9.000000000000000000 ) ) ;
#178 = LINE ( 'NONE', #177, #176 ) ;
#179 = DIRECTION ( 'NONE',  ( 0.0000000000000000000, 0.0000000000000000000, -1.000000000000000000 ) ) ;
#180 = CARTESIAN_POINT ( 'NONE',  ( 0.0000000000000000000, 0.0000000000000000000, 0.0000000000000000000 ) ) ;
#181 = DIRECTION ( 'NONE',  ( 1.000000000000000000, 0.0000000000000000000, 0.0000000000000000000 ) ) ;
#182 = DIRECTION ( 'NONE',  ( 0.0000000000000000000, 0.0000000000000000000, 1.000000000000000000 ) ) ;
#183 = CARTESIAN_POINT ( 'NONE',  ( 0.0000000000000000000, 0.0000000000000000000, 0.0000000000000000000 ) ) ;
#184 = AXIS2_PLACEMENT_3D ( 'NONE', #183, #182, #181 ) ;
#185 = AXIS2_PLACEMENT_3D ( 'NONE', #214, #213, #212 ) ;
#186 = CYLINDRICAL_SURFACE ( 'NONE', #208, 11.00000000000000000 ) ;
#187 = CIRCLE ( 'NONE', #188, 7.000000000000000000 ) ;
#188 = AXIS2_PLACEMENT_3D ( 'NONE', #220, #219, #218 ) ;
#189 = CARTESIAN_POINT ( 'NONE',  ( -4.250000000000000000, 0.0000000000000000000, -16.00000000000000000 ) ) ;
#190 = CARTESIAN_POINT ( 'NONE',  ( -10.49999999999999800, 0.0000000000000000000, 0.0000000000000000000 ) ) ;
#191 = CARTESIAN_POINT ( 'NONE',  ( 10.49999999999999800, 1.316495309083404400E-015, 0.0000000000000000000 ) ) ;
#192 = CONICAL_SURFACE ( 'NONE', #203, 10.49999999999999800, 0.7853981633974466100 ) ;
#193 = DIRECTION ( 'NONE',  ( -1.000000000000000000, 0.0000000000000000000, 0.0000000000000000000 ) ) ;
#194 = CIRCLE ( 'NONE', #184, 7.000000000000000000 ) ;
#195 = DIRECTION ( 'NONE',  ( -0.0000000000000000000, -0.0000000000000000000, 1.000000000000000000 ) ) ;
#196 = VECTOR ( 'NONE', #195, 1000.000000000000000 ) ;
#197 = CARTESIAN_POINT ( 'NONE',  ( -7.000000000000000000, 8.572527594031473200E-016, -9.000000000000000000 ) ) ;
#198 = LINE ( 'NONE', #197, #196 ) ;
#199 = CARTESIAN_POINT ( 'NONE',  ( 11.00000000000000000, 0.0000000000000000000, -16.00000000000000000 ) ) ;
#200 = CARTESIAN_POINT ( 'NONE',  ( 4.250000000000000000, 5.204748896376250700E-016, -9.000000000000000000 ) ) ;
#201 = FACE_OUTER_BOUND ( 'NONE', #25, .T. ) ;
#202 = AXIS2_PLACEMENT_3D ( 'NONE', #165, #164, #163 ) ;
#203 = AXIS2_PLACEMENT_3D ( 'NONE', #180, #179, #193 ) ;
#204 = CARTESIAN_POINT ( 'NONE',  ( 7.000000000000000000, 0.0000000000000000000, -9.000000000000000000 ) ) ;
#205 = DIRECTION ( 'NONE',  ( 1.000000000000000000, 0.0000000000000000000, 0.0000000000000000000 ) ) ;
#206 = CARTESIAN_POINT ( 'NONE',  ( 11.00000000000000000, 0.0000000000000000000, -0.5000000000000022200 ) ) ;
#207 = CARTESIAN_POINT ( 'NONE',  ( 0.0000000000000000000, 0.0000000000000000000, -16.00000000000000000 ) ) ;
#208 = AXIS2_PLACEMENT_3D ( 'NONE', #207, #209, #205 ) ;
#209 = DIRECTION ( 'NONE',  ( 0.0000000000000000000, 0.0000000000000000000, 1.000000000000000000 ) ) ;
#210 = CARTESIAN_POINT ( 'NONE',  ( 7.000000000000000000, 0.0000000000000000000, 0.0000000000000000000 ) ) ;
#211 = CARTESIAN_POINT ( 'NONE',  ( -7.000000000000000000, 8.572527594031473200E-016, 0.0000000000000000000 ) ) ;
#212 = DIRECTION ( 'NONE',  ( 1.000000000000000000, 0.0000000000000000000, 0.0000000000000000000 ) ) ;
#213 = DIRECTION ( 'NONE',  ( -0.0000000000000000000, -0.0000000000000000000, -1.000000000000000000 ) ) ;
#214 = CARTESIAN_POINT ( 'NONE',  ( 0.0000000000000000000, 0.0000000000000000000, -9.000000000000000000 ) ) ;
#215 = CIRCLE ( 'NONE', #185, 4.250000000000000000 ) ;
#216 = FACE_OUTER_BOUND ( 'NONE', #22, .T. ) ;
#217 = CARTESIAN_POINT ( 'NONE',  ( 4.250000000000000000, 5.204748896376250700E-016, -16.00000000000000000 ) ) ;
#218 = DIRECTION ( 'NONE',  ( 1.000000000000000000, 0.0000000000000000000, 0.0000000000000000000 ) ) ;
#219 = DIRECTION ( 'NONE',  ( 0.0000000000000000000, 0.0000000000000000000, 1.000000000000000000 ) ) ;
#220 = CARTESIAN_POINT ( 'NONE',  ( 0.0000000000000000000, 0.0000000000000000000, -9.000000000000000000 ) ) ;
#221 = DIRECTION ( 'NONE',  ( 0.0000000000000000000, 0.0000000000000000000, 1.000000000000000000 ) ) ;
#222 = CARTESIAN_POINT ( 'NONE',  ( 0.0000000000000000000, 0.0000000000000000000, -16.00000000000000000 ) ) ;
#223 = AXIS2_PLACEMENT_3D ( 'NONE', #222, #221, #269 ) ;
#224 = FACE_OUTER_BOUND ( 'NONE', #68, .T. ) ;
#225 = PLANE ( 'NONE',  #223 ) ;
#226 = AXIS2_PLACEMENT_3D ( 'NONE', #268, #229, #260 ) ;
#227 = DIRECTION ( 'NONE',  ( 1.000000000000000000, 0.0000000000000000000, -0.0000000000000000000 ) ) ;
#228 = DIRECTION ( 'NONE',  ( 0.0000000000000000000, 0.0000000000000000000, 1.000000000000000000 ) ) ;
#229 = DIRECTION ( 'NONE',  ( -0.0000000000000000000, -0.0000000000000000000, 1.000000000000000000 ) ) ;
#230 = FACE_OUTER_BOUND ( 'NONE', #14, .T. ) ;
#231 = DIRECTION ( 'NONE',  ( -1.000000000000000000, 0.0000000000000000000, 0.0000000000000000000 ) ) ;
#232 = FACE_BOUND ( 'NONE', #41, .T. ) ;
#233 = CARTESIAN_POINT ( 'NONE',  ( 0.0000000000000000000, 0.0000000000000000000, -9.000000000000000000 ) ) ;
#234 = FACE_OUTER_BOUND ( 'NONE', #9, .T. ) ;
#235 = CARTESIAN_POINT ( 'NONE',  ( -7.000000000000000000, 8.572527594031473200E-016, -9.000000000000000000 ) ) ;
#236 = AXIS2_PLACEMENT_3D ( 'NONE', #233, #228, #227 ) ;
#237 = FACE_BOUND ( 'NONE', #47, .T. ) ;
#238 = DIRECTION ( 'NONE',  ( 1.000000000000000000, 0.0000000000000000000, 0.0000000000000000000 ) ) ;
#239 = CIRCLE ( 'NONE', #246, 7.000000000000000000 ) ;
#240 = CONICAL_SURFACE ( 'NONE', #160, 10.49999999999999800, 0.7853981633974466100 ) ;
#241 = DIRECTION ( 'NONE',  ( -0.0000000000000000000, -0.0000000000000000000, -1.000000000000000000 ) ) ;
#242 = DIRECTION ( 'NONE',  ( 1.000000000000000000, 0.0000000000000000000, -0.0000000000000000000 ) ) ;
#243 = DIRECTION ( 'NONE',  ( 0.0000000000000000000, 0.0000000000000000000, 1.000000000000000000 ) ) ;
#244 = CARTESIAN_POINT ( 'NONE',  ( 0.0000000000000000000, 0.0000000000000000000, 0.0000000000000000000 ) ) ;
#245 = AXIS2_PLACEMENT_3D ( 'NONE', #244, #243, #242 ) ;
#246 = AXIS2_PLACEMENT_3D ( 'NONE', #161, #159, #238 ) ;
#247 = CYLINDRICAL_SURFACE ( 'NONE', #226, 7.000000000000000000 ) ;
#248 = DIRECTION ( 'NONE',  ( -1.000000000000000000, 0.0000000000000000000, 0.0000000000000000000 ) ) ;
#249 = DIRECTION ( 'NONE',  ( 0.0000000000000000000, 0.0000000000000000000, -1.000000000000000000 ) ) ;
#250 = CARTESIAN_POINT ( 'NONE',  ( 0.0000000000000000000, 0.0000000000000000000, -16.00000000000000000 ) ) ;
#251 = LINE ( 'NONE', #117, #116 ) ;
#252 = CIRCLE ( 'NONE', #259, 11.00000000000000000 ) ;
#253 = DIRECTION ( 'NONE',  ( -1.000000000000000000, 0.0000000000000000000, 0.0000000000000000000 ) ) ;
#254 = DIRECTION ( 'NONE',  ( -0.0000000000000000000, -0.0000000000000000000, -1.000000000000000000 ) ) ;
#255 = VECTOR ( 'NONE', #254, 1000.000000000000000 ) ;
#256 = CARTESIAN_POINT ( 'NONE',  ( 4.250000000000000000, 5.204748896376250700E-016, 0.001000000000001000100 ) ) ;
#257 = AXIS2_PLACEMENT_3D ( 'NONE', #122, #121, #120 ) ;
#258 = LINE ( 'NONE', #256, #255 ) ;
#259 = AXIS2_PLACEMENT_3D ( 'NONE', #130, #129, #128 ) ;
#260 = DIRECTION ( 'NONE',  ( 1.000000000000000000, 0.0000000000000000000, 0.0000000000000000000 ) ) ;
#261 = CIRCLE ( 'NONE', #267, 4.250000000000000000 ) ;
#262 = DIRECTION ( 'NONE',  ( 1.000000000000000000, 0.0000000000000000000, 0.0000000000000000000 ) ) ;
#263 = DIRECTION ( 'NONE',  ( 0.0000000000000000000, 0.0000000000000000000, 1.000000000000000000 ) ) ;
#264 = CARTESIAN_POINT ( 'NONE',  ( 0.0000000000000000000, 0.0000000000000000000, -9.000000000000000000 ) ) ;
#265 = AXIS2_PLACEMENT_3D ( 'NONE', #264, #263, #262 ) ;
#266 = CIRCLE ( 'NONE', #265, 7.000000000000000000 ) ;
#267 = AXIS2_PLACEMENT_3D ( 'NONE', #250, #249, #248 ) ;
#268 = CARTESIAN_POINT ( 'NONE',  ( 0.0000000000000000000, 0.0000000000000000000, -9.000000000000000000 ) ) ;
#269 = DIRECTION ( 'NONE',  ( 1.000000000000000000, 0.0000000000000000000, -0.0000000000000000000 ) ) ;
#270 = DIRECTION ( 'NONE',  ( 1.000000000000000000, 0.0000000000000000000, 0.0000000000000000000 ) ) ;
#271 = DIRECTION ( 'NONE',  ( 0.0000000000000000000, 0.0000000000000000000, 1.000000000000000000 ) ) ;
#272 = CARTESIAN_POINT ( 'NONE',  ( 0.0000000000000000000, 0.0000000000000000000, -16.00000000000000000 ) ) ;
#273 = CIRCLE ( 'NONE', #288, 11.00000000000000000 ) ;
#274 = CARTESIAN_POINT ( 'NONE',  ( 0.0000000000000000000, 0.0000000000000000000, 0.001000000000001000100 ) ) ;
#275 = LINE ( 'NONE', #153, #152 ) ;
#276 = DIRECTION ( 'NONE',  ( 0.0000000000000000000, 0.0000000000000000000, 1.000000000000000000 ) ) ;
#277 = VECTOR ( 'NONE', #276, 1000.000000000000000 ) ;
#278 = FACE_OUTER_BOUND ( 'NONE', #20, .T. ) ;
#279 = CARTESIAN_POINT ( 'NONE',  ( -11.00000000000000000, 1.347111479062088400E-015, -16.00000000000000000 ) ) ;
#280 = LINE ( 'NONE', #279, #277 ) ;
#281 = DIRECTION ( 'NONE',  ( 1.000000000000000000, 0.0000000000000000000, 0.0000000000000000000 ) ) ;
#282 = DIRECTION ( 'NONE',  ( -0.0000000000000000000, -0.0000000000000000000, -1.000000000000000000 ) ) ;
#283 = CARTESIAN_POINT ( 'NONE',  ( 0.0000000000000000000, 0.0000000000000000000, -9.000000000000000000 ) ) ;
#284 = CARTESIAN_POINT ( 'NONE',  ( -11.00000000000000000, 1.347111479062088400E-015, -16.00000000000000000 ) ) ;
#285 = DIRECTION ( 'NONE',  ( -0.7071067811865463500, 0.0000000000000000000, -0.7071067811865487900 ) ) ;
#286 = VECTOR ( 'NONE', #285, 1000.000000000000000 ) ;
#287 = CARTESIAN_POINT ( 'NONE',  ( -10.49999999999999800, 0.0000000000000000000, 0.0000000000000000000 ) ) ;
#288 = AXIS2_PLACEMENT_3D ( 'NONE', #272, #271, #270 ) ;
#289 = DIRECTION ( 'NONE',  ( 1.000000000000000000, 0.0000000000000000000, 0.0000000000000000000 ) ) ;
#290 = DIRECTION ( 'NONE',  ( 0.0000000000000000000, 0.0000000000000000000, -1.000000000000000000 ) ) ;
#291 = CARTESIAN_POINT ( 'NONE',  ( 0.0000000000000000000, 0.0000000000000000000, -0.5000000000000022200 ) ) ;
#292 = CIRCLE ( 'NONE', #118, 11.00000000000000000 ) ;
#293 = CIRCLE ( 'NONE', #298, 4.250000000000000000 ) ;
#294 = LINE ( 'NONE', #287, #286 ) ;
#295 = CYLINDRICAL_SURFACE ( 'NONE', #119, 4.250000000000000000 ) ;
#296 = DIRECTION ( 'NONE',  ( 1.000000000000000000, 0.0000000000000000000, 0.0000000000000000000 ) ) ;
#297 = DIRECTION ( 'NONE',  ( 0.0000000000000000000, 0.0000000000000000000, 1.000000000000000000 ) ) ;
#298 = AXIS2_PLACEMENT_3D ( 'NONE', #283, #282, #281 ) ;
#299 = PRODUCT_DEFINITION_SHAPE ( 'NONE', 'NONE',  #354 ) ;
#300 = PRODUCT_RELATED_PRODUCT_CATEGORY ( 'detail', '', ( #363 ) ) ;
#301 = CC_DESIGN_SECURITY_CLASSIFICATION ( #313, ( #332 ) ) ;
#302 = CC_DESIGN_APPROVAL ( #369, ( #313 ) ) ;
#303 = APPROVAL_DATE_TIME ( #304, #369 ) ;
#304 = DATE_AND_TIME ( #305, #306 ) ;
#305 = CALENDAR_DATE ( 2012, 5, 4 ) ;
#306 = LOCAL_TIME ( 9, 13, 4.000000000000000000, #366 ) ;
#307 = DIRECTION ( 'NONE',  ( 0.0000000000000000000, 0.0000000000000000000, 1.000000000000000000 ) ) ;
#308 = CARTESIAN_POINT ( 'NONE',  ( 0.0000000000000000000, 0.0000000000000000000, 0.0000000000000000000 ) ) ;
#309 = AXIS2_PLACEMENT_3D ( 'NONE', #308, #307, #379 ) ;
#310 = CC_DESIGN_PERSON_AND_ORGANIZATION_ASSIGNMENT ( #312, #311, ( #313 ) ) ;
#311 = PERSON_AND_ORGANIZATION_ROLE ( 'classification_officer' ) ;
#312 = PERSON_AND_ORGANIZATION ( #362, #361 ) ;
#313 = SECURITY_CLASSIFICATION ( '', '', #314 ) ;
#314 = SECURITY_CLASSIFICATION_LEVEL ( 'unclassified' ) ;
#315 = CC_DESIGN_PERSON_AND_ORGANIZATION_ASSIGNMENT ( #317, #316, ( #332 ) ) ;
#316 = PERSON_AND_ORGANIZATION_ROLE ( 'design_supplier' ) ;
#317 = PERSON_AND_ORGANIZATION ( #362, #361 ) ;
#318 = CC_DESIGN_PERSON_AND_ORGANIZATION_ASSIGNMENT ( #320, #319, ( #332 ) ) ;
#319 = PERSON_AND_ORGANIZATION_ROLE ( 'creator' ) ;
#320 = PERSON_AND_ORGANIZATION ( #362, #361 ) ;
#321 = CC_DESIGN_APPROVAL ( #329, ( #332 ) ) ;
#322 = APPROVAL_DATE_TIME ( #323, #329 ) ;
#323 = DATE_AND_TIME ( #324, #325 ) ;
#324 = CALENDAR_DATE ( 2012, 5, 4 ) ;
#325 = LOCAL_TIME ( 9, 13, 4.000000000000000000, #326 ) ;
#326 = COORDINATED_UNIVERSAL_TIME_OFFSET ( 5, 0, .BEHIND. ) ;
#327 = APPROVAL_PERSON_ORGANIZATION ( #331, #329, #328 ) ;
#328 = APPROVAL_ROLE ( '' ) ;
#329 = APPROVAL ( #330, 'UNSPECIFIED' ) ;
#330 = APPROVAL_STATUS ( 'not_yet_approved' ) ;
#331 = PERSON_AND_ORGANIZATION ( #362, #361 ) ;
#332 = PRODUCT_DEFINITION_FORMATION_WITH_SPECIFIED_SOURCE ( 'ANY', '', #363, .NOT_KNOWN. ) ;
#333 = SHAPE_DEFINITION_REPRESENTATION ( #299, #2 ) ;
#334 = CC_DESIGN_DATE_AND_TIME_ASSIGNMENT ( #336, #335, ( #354 ) ) ;
#335 = DATE_TIME_ROLE ( 'creation_date' ) ;
#336 = DATE_AND_TIME ( #337, #338 ) ;
#337 = CALENDAR_DATE ( 2012, 5, 4 ) ;
#338 = LOCAL_TIME ( 9, 13, 4.000000000000000000, #339 ) ;
#339 = COORDINATED_UNIVERSAL_TIME_OFFSET ( 5, 0, .BEHIND. ) ;
#340 = CC_DESIGN_PERSON_AND_ORGANIZATION_ASSIGNMENT ( #342, #341, ( #354 ) ) ;
#341 = PERSON_AND_ORGANIZATION_ROLE ( 'creator' ) ;
#342 = PERSON_AND_ORGANIZATION ( #362, #361 ) ;
#343 = CC_DESIGN_APPROVAL ( #351, ( #354 ) ) ;
#344 = APPROVAL_DATE_TIME ( #345, #351 ) ;
#345 = DATE_AND_TIME ( #346, #347 ) ;
#346 = CALENDAR_DATE ( 2012, 5, 4 ) ;
#347 = LOCAL_TIME ( 9, 13, 4.000000000000000000, #348 ) ;
#348 = COORDINATED_UNIVERSAL_TIME_OFFSET ( 5, 0, .BEHIND. ) ;
#349 = APPROVAL_PERSON_ORGANIZATION ( #353, #351, #350 ) ;
#350 = APPROVAL_ROLE ( '' ) ;
#351 = APPROVAL ( #352, 'UNSPECIFIED' ) ;
#352 = APPROVAL_STATUS ( 'not_yet_approved' ) ;
#353 = PERSON_AND_ORGANIZATION ( #362, #361 ) ;
#354 = PRODUCT_DEFINITION ( 'UNKNOWN', '', #332, #355 ) ;
#355 = DESIGN_CONTEXT ( 'detailed design', #357, 'design' ) ;
#356 = APPLICATION_PROTOCOL_DEFINITION ( 'international standard', 'config_control_design', 1994, #357 ) ;
#357 = APPLICATION_CONTEXT ( 'configuration controlled 3d designs of mechanical parts and assemblies' ) ;
#358 = CC_DESIGN_PERSON_AND_ORGANIZATION_ASSIGNMENT ( #360, #359, ( #363 ) ) ;
#359 = PERSON_AND_ORGANIZATION_ROLE ( 'design_owner' ) ;
#360 = PERSON_AND_ORGANIZATION ( #362, #361 ) ;
#361 = ORGANIZATION ( 'UNSPECIFIED', 'UNSPECIFIED', '' ) ;
#362 = PERSON ( 'UNSPECIFIED', 'UNSPECIFIED', 'UNSPECIFIED', ('UNSPECIFIED'), ('UNSPECIFIED'), ('UNSPECIFIED') ) ;
#363 = PRODUCT ( 'WDS-600-203', 'WDS-600-203', '', ( #364 ) ) ;
#364 = MECHANICAL_CONTEXT ( 'NONE', #378, 'mechanical' ) ;
#365 = APPLICATION_PROTOCOL_DEFINITION ( 'international standard', 'config_control_design', 1994, #378 ) ;
#366 = COORDINATED_UNIVERSAL_TIME_OFFSET ( 5, 0, .BEHIND. ) ;
#367 = APPROVAL_PERSON_ORGANIZATION ( #371, #369, #368 ) ;
#368 = APPROVAL_ROLE ( '' ) ;
#369 = APPROVAL ( #370, 'UNSPECIFIED' ) ;
#370 = APPROVAL_STATUS ( 'not_yet_approved' ) ;
#371 = PERSON_AND_ORGANIZATION ( #362, #361 ) ;
#372 = CC_DESIGN_DATE_AND_TIME_ASSIGNMENT ( #374, #373, ( #313 ) ) ;
#373 = DATE_TIME_ROLE ( 'classification_date' ) ;
#374 = DATE_AND_TIME ( #375, #376 ) ;
#375 = CALENDAR_DATE ( 2012, 5, 4 ) ;
#376 = LOCAL_TIME ( 9, 13, 4.000000000000000000, #377 ) ;
#377 = COORDINATED_UNIVERSAL_TIME_OFFSET ( 5, 0, .BEHIND. ) ;
#378 = APPLICATION_CONTEXT ( 'configuration controlled 3d designs of mechanical parts and assemblies' ) ;
#379 = DIRECTION ( 'NONE',  ( 1.000000000000000000, 0.0000000000000000000, 0.0000000000000000000 ) ) ;
ENDSEC;
END-ISO-10303-21;
