ISO-10303-21;
HEADER;
FILE_DESCRIPTION (( 'STEP AP203' ),
    '1' );
FILE_NAME ('WDS-600-2025.step',
    '2012-04-05T13:12:55',
    ( 'SysAdmin' ),
    ( 'SolidWorks' ),
    'SwSTEP 2.0',
    'SolidWorks 2012',
    '' );
FILE_SCHEMA (( 'CONFIG_CONTROL_DESIGN' ));
ENDSEC;

DATA;
#1 = PRODUCT ( 'WDS-600-2025', 'WDS-600-2025', '', ( #191 ) ) ;
#2 = DESIGN_CONTEXT ( 'detailed design', #157, 'design' ) ;
#3 = MANIFOLD_SOLID_BREP ( 'Cut-Extrude3', #323 ) ;
#4 = PRODUCT_DEFINITION_SHAPE ( 'NONE', 'NONE',  #239 ) ;
#5 = ORIENTED_EDGE ( 'NONE', *, *, #270, .T. ) ;
#6 = ORIENTED_EDGE ( 'NONE', *, *, #274, .T. ) ;
#7 = ORIENTED_EDGE ( 'NONE', *, *, #271, .F. ) ;
#8 = EDGE_LOOP ( 'NONE', ( #42, #121 ) ) ;
#9 = CARTESIAN_POINT ( 'NONE',  ( 10.00000000000000000, 0.0000000000000000000, -0.5000000000000022200 ) ) ;
#10 = EDGE_LOOP ( 'NONE', ( #84, #19 ) ) ;
#11 = ORIENTED_EDGE ( 'NONE', *, *, #285, .F. ) ;
#12 = EDGE_LOOP ( 'NONE', ( #125, #115, #150, #26 ) ) ;
#13 = EDGE_LOOP ( 'NONE', ( #6, #5 ) ) ;
#14 = VERTEX_POINT ( 'NONE', #126 ) ;
#15 = CARTESIAN_POINT ( 'NONE',  ( 5.500000000000000000, 0.0000000000000000000, 0.0000000000000000000 ) ) ;
#16 = ORIENTED_EDGE ( 'NONE', *, *, #288, .T. ) ;
#17 = DIRECTION ( 'NONE',  ( -0.0000000000000000000, -0.0000000000000000000, 1.000000000000000000 ) ) ;
#18 = VERTEX_POINT ( 'NONE', #152 ) ;
#19 = ORIENTED_EDGE ( 'NONE', *, *, #293, .T. ) ;
#20 = EDGE_LOOP ( 'NONE', ( #104, #24, #136, #128 ) ) ;
#21 = DIRECTION ( 'NONE',  ( 0.0000000000000000000, 0.0000000000000000000, 1.000000000000000000 ) ) ;
#22 = CARTESIAN_POINT ( 'NONE',  ( -9.500000000000000000, 0.0000000000000000000, 0.0000000000000000000 ) ) ;
#23 = DIRECTION ( 'NONE',  ( 0.0000000000000000000, 0.0000000000000000000, 1.000000000000000000 ) ) ;
#24 = ORIENTED_EDGE ( 'NONE', *, *, #274, .F. ) ;
#25 = CARTESIAN_POINT ( 'NONE',  ( 0.0000000000000000000, 0.0000000000000000000, -16.00000000000000000 ) ) ;
#26 = ORIENTED_EDGE ( 'NONE', *, *, #267, .F. ) ;
#27 = DIRECTION ( 'NONE',  ( 1.000000000000000000, 0.0000000000000000000, 0.0000000000000000000 ) ) ;
#28 = CARTESIAN_POINT ( 'NONE',  ( -5.500000000000000000, 6.735557395310442000E-016, -7.000000000000000000 ) ) ;
#29 = ORIENTED_EDGE ( 'NONE', *, *, #268, .F. ) ;
#30 = DIRECTION ( 'NONE',  ( -0.7071067811865463500, 0.0000000000000000000, -0.7071067811865487900 ) ) ;
#31 = DIRECTION ( 'NONE',  ( 1.000000000000000000, 0.0000000000000000000, -0.0000000000000000000 ) ) ;
#32 = DIRECTION ( 'NONE',  ( 0.0000000000000000000, 0.0000000000000000000, 1.000000000000000000 ) ) ;
#33 = ORIENTED_EDGE ( 'NONE', *, *, #273, .F. ) ;
#34 = DIRECTION ( 'NONE',  ( 0.0000000000000000000, 0.0000000000000000000, 1.000000000000000000 ) ) ;
#35 = VERTEX_POINT ( 'NONE', #91 ) ;
#36 = DIRECTION ( 'NONE',  ( 1.000000000000000000, 0.0000000000000000000, -0.0000000000000000000 ) ) ;
#37 = VERTEX_POINT ( 'NONE', #131 ) ;
#38 = DIRECTION ( 'NONE',  ( 0.0000000000000000000, 0.0000000000000000000, 1.000000000000000000 ) ) ;
#39 = ORIENTED_EDGE ( 'NONE', *, *, #259, .T. ) ;
#40 = DIRECTION ( 'NONE',  ( -0.0000000000000000000, -0.0000000000000000000, 1.000000000000000000 ) ) ;
#41 = DIRECTION ( 'NONE',  ( 0.0000000000000000000, 0.0000000000000000000, 1.000000000000000000 ) ) ;
#42 = ORIENTED_EDGE ( 'NONE', *, *, #257, .T. ) ;
#43 = CARTESIAN_POINT ( 'NONE',  ( 0.0000000000000000000, 0.0000000000000000000, -16.00000000000000000 ) ) ;
#44 = ORIENTED_EDGE ( 'NONE', *, *, #270, .F. ) ;
#45 = DIRECTION ( 'NONE',  ( 1.000000000000000000, 0.0000000000000000000, 0.0000000000000000000 ) ) ;
#46 = VERTEX_POINT ( 'NONE', #127 ) ;
#47 = DIRECTION ( 'NONE',  ( -0.0000000000000000000, -0.0000000000000000000, -1.000000000000000000 ) ) ;
#48 = ORIENTED_EDGE ( 'NONE', *, *, #273, .T. ) ;
#49 = DIRECTION ( 'NONE',  ( 1.000000000000000000, 0.0000000000000000000, 0.0000000000000000000 ) ) ;
#50 = ORIENTED_EDGE ( 'NONE', *, *, #265, .T. ) ;
#51 = CARTESIAN_POINT ( 'NONE',  ( 0.0000000000000000000, 0.0000000000000000000, 0.0000000000000000000 ) ) ;
#52 = ORIENTED_EDGE ( 'NONE', *, *, #235, .F. ) ;
#53 = DIRECTION ( 'NONE',  ( 1.000000000000000000, 0.0000000000000000000, 0.0000000000000000000 ) ) ;
#54 = DIRECTION ( 'NONE',  ( 1.000000000000000000, 0.0000000000000000000, 0.0000000000000000000 ) ) ;
#55 = LINE ( 'NONE', #143, #329 ) ;
#56 = ORIENTED_EDGE ( 'NONE', *, *, #293, .F. ) ;
#57 = VERTEX_POINT ( 'NONE', #137 ) ;
#58 = DIRECTION ( 'NONE',  ( 1.000000000000000000, 0.0000000000000000000, 0.0000000000000000000 ) ) ;
#59 = VERTEX_POINT ( 'NONE', #22 ) ;
#60 = DIRECTION ( 'NONE',  ( 1.000000000000000000, 0.0000000000000000000, 0.0000000000000000000 ) ) ;
#61 = CARTESIAN_POINT ( 'NONE',  ( 0.0000000000000000000, 0.0000000000000000000, -16.00000000000000000 ) ) ;
#62 = EDGE_LOOP ( 'NONE', ( #92, #155, #139, #116 ) ) ;
#63 = CARTESIAN_POINT ( 'NONE',  ( 0.0000000000000000000, 0.0000000000000000000, -16.00000000000000000 ) ) ;
#64 = PLANE ( 'NONE',  #320 ) ;
#65 = ORIENTED_EDGE ( 'NONE', *, *, #285, .T. ) ;
#66 = CARTESIAN_POINT ( 'NONE',  ( 9.500000000000000000, 1.194030629168669500E-015, 0.0000000000000000000 ) ) ;
#67 = DIRECTION ( 'NONE',  ( 0.0000000000000000000, 0.0000000000000000000, 1.000000000000000000 ) ) ;
#68 = DIRECTION ( 'NONE',  ( 0.0000000000000000000, 0.0000000000000000000, 1.000000000000000000 ) ) ;
#69 = CARTESIAN_POINT ( 'NONE',  ( 0.0000000000000000000, 0.0000000000000000000, -7.000000000000000000 ) ) ;
#70 = CARTESIAN_POINT ( 'NONE',  ( 5.500000000000000000, 0.0000000000000000000, -7.000000000000000000 ) ) ;
#71 = ORIENTED_EDGE ( 'NONE', *, *, #288, .F. ) ;
#72 = ORIENTED_EDGE ( 'NONE', *, *, #266, .F. ) ;
#73 = ORIENTED_EDGE ( 'NONE', *, *, #259, .F. ) ;
#74 = DIRECTION ( 'NONE',  ( 0.0000000000000000000, 0.0000000000000000000, 1.000000000000000000 ) ) ;
#75 = VERTEX_POINT ( 'NONE', #66 ) ;
#76 = DIRECTION ( 'NONE',  ( 1.000000000000000000, 0.0000000000000000000, 0.0000000000000000000 ) ) ;
#77 = DIRECTION ( 'NONE',  ( 1.000000000000000000, 0.0000000000000000000, 0.0000000000000000000 ) ) ;
#78 = VERTEX_POINT ( 'NONE', #15 ) ;
#79 = DIRECTION ( 'NONE',  ( 0.0000000000000000000, 0.0000000000000000000, 1.000000000000000000 ) ) ;
#80 = EDGE_LOOP ( 'NONE', ( #86, #7 ) ) ;
#81 = CARTESIAN_POINT ( 'NONE',  ( -10.00000000000000000, 1.224646799147353300E-015, -16.00000000000000000 ) ) ;
#82 = LINE ( 'NONE', #144, #310 ) ;
#83 = EDGE_LOOP ( 'NONE', ( #106, #50, #39, #33 ) ) ;
#84 = ORIENTED_EDGE ( 'NONE', *, *, #280, .T. ) ;
#85 = LINE ( 'NONE', #141, #306 ) ;
#86 = ORIENTED_EDGE ( 'NONE', *, *, #254, .F. ) ;
#87 = CARTESIAN_POINT ( 'NONE',  ( 0.0000000000000000000, 0.0000000000000000000, -0.5000000000000022200 ) ) ;
#88 = CARTESIAN_POINT ( 'NONE',  ( 0.0000000000000000000, 0.0000000000000000000, 0.0000000000000000000 ) ) ;
#89 = CARTESIAN_POINT ( 'NONE',  ( 0.0000000000000000000, 0.0000000000000000000, 0.0000000000000000000 ) ) ;
#90 = LINE ( 'NONE', #70, #315 ) ;
#91 = CARTESIAN_POINT ( 'NONE',  ( -3.250000000000000400, 0.0000000000000000000, -16.00000000000000000 ) ) ;
#92 = ORIENTED_EDGE ( 'NONE', *, *, #258, .F. ) ;
#93 = ORIENTED_EDGE ( 'NONE', *, *, #269, .F. ) ;
#94 = VERTEX_POINT ( 'NONE', #28 ) ;
#95 = LINE ( 'NONE', #148, #312 ) ;
#96 = ORIENTED_EDGE ( 'NONE', *, *, #235, .T. ) ;
#97 = EDGE_LOOP ( 'NONE', ( #11, #71 ) ) ;
#98 = CARTESIAN_POINT ( 'NONE',  ( -5.500000000000000000, 6.735557395310442000E-016, 0.0000000000000000000 ) ) ;
#99 = ORIENTED_EDGE ( 'NONE', *, *, #286, .F. ) ;
#100 = DIRECTION ( 'NONE',  ( 0.0000000000000000000, 0.0000000000000000000, 1.000000000000000000 ) ) ;
#101 = EDGE_LOOP ( 'NONE', ( #114, #96, #48, #119 ) ) ;
#102 = DIRECTION ( 'NONE',  ( 0.0000000000000000000, 0.0000000000000000000, 1.000000000000000000 ) ) ;
#103 = DIRECTION ( 'NONE',  ( 1.000000000000000000, 0.0000000000000000000, 0.0000000000000000000 ) ) ;
#104 = ORIENTED_EDGE ( 'NONE', *, *, #272, .F. ) ;
#105 = DIRECTION ( 'NONE',  ( 0.0000000000000000000, 0.0000000000000000000, 1.000000000000000000 ) ) ;
#106 = ORIENTED_EDGE ( 'NONE', *, *, #269, .T. ) ;
#107 = ORIENTED_EDGE ( 'NONE', *, *, #266, .T. ) ;
#108 = CARTESIAN_POINT ( 'NONE',  ( 0.0000000000000000000, 0.0000000000000000000, -0.5000000000000022200 ) ) ;
#109 = ORIENTED_EDGE ( 'NONE', *, *, #280, .F. ) ;
#110 = VERTEX_POINT ( 'NONE', #81 ) ;
#111 = EDGE_LOOP ( 'NONE', ( #72, #109, #130, #65 ) ) ;
#112 = LINE ( 'NONE', #154, #319 ) ;
#113 = EDGE_LOOP ( 'NONE', ( #56, #107, #16, #99 ) ) ;
#114 = ORIENTED_EDGE ( 'NONE', *, *, #265, .F. ) ;
#115 = ORIENTED_EDGE ( 'NONE', *, *, #258, .T. ) ;
#116 = ORIENTED_EDGE ( 'NONE', *, *, #254, .T. ) ;
#117 = VERTEX_POINT ( 'NONE', #9 ) ;
#118 = CARTESIAN_POINT ( 'NONE',  ( 3.250000000000000400, 3.980102097228898200E-016, -16.00000000000000000 ) ) ;
#119 = ORIENTED_EDGE ( 'NONE', *, *, #279, .T. ) ;
#120 = CARTESIAN_POINT ( 'NONE',  ( 10.00000000000000000, 0.0000000000000000000, -16.00000000000000000 ) ) ;
#121 = ORIENTED_EDGE ( 'NONE', *, *, #255, .T. ) ;
#122 = LINE ( 'NONE', #120, #304 ) ;
#123 = CARTESIAN_POINT ( 'NONE',  ( 0.0000000000000000000, 0.0000000000000000000, 0.0000000000000000000 ) ) ;
#124 = PLANE ( 'NONE',  #331 ) ;
#125 = ORIENTED_EDGE ( 'NONE', *, *, #255, .F. ) ;
#126 = CARTESIAN_POINT ( 'NONE',  ( -3.250000000000000400, 0.0000000000000000000, -7.000000000000000000 ) ) ;
#127 = CARTESIAN_POINT ( 'NONE',  ( 10.00000000000000000, 0.0000000000000000000, -16.00000000000000000 ) ) ;
#128 = ORIENTED_EDGE ( 'NONE', *, *, #279, .F. ) ;
#129 = DIRECTION ( 'NONE',  ( -0.0000000000000000000, -0.0000000000000000000, 1.000000000000000000 ) ) ;
#130 = ORIENTED_EDGE ( 'NONE', *, *, #286, .T. ) ;
#131 = CARTESIAN_POINT ( 'NONE',  ( 5.500000000000000000, 0.0000000000000000000, -7.000000000000000000 ) ) ;
#132 = VERTEX_POINT ( 'NONE', #98 ) ;
#133 = CARTESIAN_POINT ( 'NONE',  ( 0.0000000000000000000, 0.0000000000000000000, -7.000000000000000000 ) ) ;
#134 = DIRECTION ( 'NONE',  ( 0.0000000000000000000, 0.0000000000000000000, -1.000000000000000000 ) ) ;
#135 = CARTESIAN_POINT ( 'NONE',  ( 0.0000000000000000000, 0.0000000000000000000, -7.000000000000000000 ) ) ;
#136 = ORIENTED_EDGE ( 'NONE', *, *, #268, .T. ) ;
#137 = CARTESIAN_POINT ( 'NONE',  ( -10.00000000000000000, 1.224646799147353300E-015, -0.5000000000000022200 ) ) ;
#138 = ORIENTED_EDGE ( 'NONE', *, *, #272, .T. ) ;
#139 = ORIENTED_EDGE ( 'NONE', *, *, #267, .T. ) ;
#140 = VERTEX_POINT ( 'NONE', #118 ) ;
#141 = CARTESIAN_POINT ( 'NONE',  ( 3.250000000000000400, 3.980102097228898200E-016, 0.001000000000001000100 ) ) ;
#142 = EDGE_LOOP ( 'NONE', ( #44, #138, #73, #29 ) ) ;
#143 = CARTESIAN_POINT ( 'NONE',  ( -9.500000000000000000, 0.0000000000000000000, 0.0000000000000000000 ) ) ;
#144 = CARTESIAN_POINT ( 'NONE',  ( -10.00000000000000000, 1.224646799147353300E-015, -16.00000000000000000 ) ) ;
#145 = DIRECTION ( 'NONE',  ( 1.000000000000000000, 0.0000000000000000000, 0.0000000000000000000 ) ) ;
#146 = CARTESIAN_POINT ( 'NONE',  ( 0.0000000000000000000, 0.0000000000000000000, -16.00000000000000000 ) ) ;
#147 = DIRECTION ( 'NONE',  ( 0.7071067811865463500, 8.659560562354918100E-017, -0.7071067811865487900 ) ) ;
#148 = CARTESIAN_POINT ( 'NONE',  ( 9.500000000000000000, 1.163414459189985500E-015, 0.0000000000000000000 ) ) ;
#149 = EDGE_LOOP ( 'NONE', ( #93, #52 ) ) ;
#150 = ORIENTED_EDGE ( 'NONE', *, *, #271, .T. ) ;
#151 = DIRECTION ( 'NONE',  ( 1.000000000000000000, 0.0000000000000000000, 0.0000000000000000000 ) ) ;
#152 = CARTESIAN_POINT ( 'NONE',  ( 3.250000000000000400, 3.980102097228898200E-016, -7.000000000000000000 ) ) ;
#153 = DIRECTION ( 'NONE',  ( 0.0000000000000000000, 0.0000000000000000000, 1.000000000000000000 ) ) ;
#154 = CARTESIAN_POINT ( 'NONE',  ( -5.500000000000000000, 6.735557395310442000E-016, -7.000000000000000000 ) ) ;
#155 = ORIENTED_EDGE ( 'NONE', *, *, #257, .F. ) ;
#156 = CARTESIAN_POINT ( 'NONE',  ( 0.0000000000000000000, 0.0000000000000000000, 0.0000000000000000000 ) ) ;
#157 = APPLICATION_CONTEXT ( 'configuration controlled 3d designs of mechanical parts and assemblies' ) ;
#158 = APPLICATION_CONTEXT ( 'configuration controlled 3d designs of mechanical parts and assemblies' ) ;
#159 = DIRECTION ( 'NONE',  ( 0.0000000000000000000, 0.0000000000000000000, -1.000000000000000000 ) ) ;
#160 = APPROVAL_DATE_TIME ( #161, #298 ) ;
#161 = DATE_AND_TIME ( #367, #275 ) ;
#162 = APPROVAL_ROLE ( '' ) ;
#163 = APPROVAL_STATUS ( 'not_yet_approved' ) ;
#164 = PERSON_AND_ORGANIZATION ( #377, #372 ) ;
#165 = DATE_TIME_ROLE ( 'classification_date' ) ;
#166 = DATE_AND_TIME ( #337, #291 ) ;
#167 = PERSON_AND_ORGANIZATION_ROLE ( 'classification_officer' ) ;
#168 = PERSON_AND_ORGANIZATION ( #377, #372 ) ;
#169 = SECURITY_CLASSIFICATION_LEVEL ( 'unclassified' ) ;
#170 = PERSON_AND_ORGANIZATION_ROLE ( 'design_supplier' ) ;
#171 = PERSON_AND_ORGANIZATION ( #377, #372 ) ;
#172 = PERSON_AND_ORGANIZATION_ROLE ( 'creator' ) ;
#173 = PERSON_AND_ORGANIZATION ( #377, #372 ) ;
#174 = APPROVAL_DATE_TIME ( #175, #276 ) ;
#175 = DATE_AND_TIME ( #352, #297 ) ;
#176 = APPROVAL_ROLE ( '' ) ;
#177 = APPROVAL_STATUS ( 'not_yet_approved' ) ;
#178 = PERSON_AND_ORGANIZATION ( #377, #372 ) ;
#179 = DATE_TIME_ROLE ( 'creation_date' ) ;
#180 = DATE_AND_TIME ( #340, #240 ) ;
#181 = PERSON_AND_ORGANIZATION_ROLE ( 'creator' ) ;
#182 = PERSON_AND_ORGANIZATION ( #377, #372 ) ;
#183 = APPROVAL_DATE_TIME ( #184, #237 ) ;
#184 = DATE_AND_TIME ( #342, #241 ) ;
#185 = APPROVAL_ROLE ( '' ) ;
#186 = APPROVAL_STATUS ( 'not_yet_approved' ) ;
#187 = PERSON_AND_ORGANIZATION ( #377, #372 ) ;
#188 = APPLICATION_PROTOCOL_DEFINITION ( 'international standard', 'config_control_design', 1994, #157 ) ;
#189 = PERSON_AND_ORGANIZATION_ROLE ( 'design_owner' ) ;
#190 = PERSON_AND_ORGANIZATION ( #377, #372 ) ;
#191 = MECHANICAL_CONTEXT ( 'NONE', #158, 'mechanical' ) ;
#192 = APPLICATION_PROTOCOL_DEFINITION ( 'international standard', 'config_control_design', 1994, #158 ) ;
#193 = DIRECTION ( 'NONE',  ( 1.000000000000000000, 0.0000000000000000000, 0.0000000000000000000 ) ) ;
#194 = DIRECTION ( 'NONE',  ( 0.0000000000000000000, 0.0000000000000000000, 1.000000000000000000 ) ) ;
#195 = CARTESIAN_POINT ( 'NONE',  ( 0.0000000000000000000, 0.0000000000000000000, 0.0000000000000000000 ) ) ;
#196 = SHAPE_DEFINITION_REPRESENTATION ( #4, #379 ) ;
#197 =( NAMED_UNIT ( * ) SI_UNIT ( $, .STERADIAN. ) SOLID_ANGLE_UNIT ( ) );
#198 =( NAMED_UNIT ( * ) PLANE_ANGLE_UNIT ( ) SI_UNIT ( $, .RADIAN. ) );
#199 =( LENGTH_UNIT ( ) NAMED_UNIT ( * ) SI_UNIT ( .MILLI., .METRE. ) );
#200 = DIRECTION ( 'NONE',  ( -1.000000000000000000, 0.0000000000000000000, 0.0000000000000000000 ) ) ;
#201 = DIRECTION ( 'NONE',  ( 0.0000000000000000000, 0.0000000000000000000, -1.000000000000000000 ) ) ;
#202 = CARTESIAN_POINT ( 'NONE',  ( 0.0000000000000000000, 0.0000000000000000000, 0.0000000000000000000 ) ) ;
#203 = DIRECTION ( 'NONE',  ( 1.000000000000000000, 0.0000000000000000000, -0.0000000000000000000 ) ) ;
#204 = DIRECTION ( 'NONE',  ( 0.0000000000000000000, 0.0000000000000000000, 1.000000000000000000 ) ) ;
#205 = CARTESIAN_POINT ( 'NONE',  ( 0.0000000000000000000, 0.0000000000000000000, -7.000000000000000000 ) ) ;
#206 = PLANE ( 'NONE',  #350 ) ;
#207 = DIRECTION ( 'NONE',  ( 1.000000000000000000, 0.0000000000000000000, 0.0000000000000000000 ) ) ;
#208 = DIRECTION ( 'NONE',  ( -0.0000000000000000000, -0.0000000000000000000, -1.000000000000000000 ) ) ;
#209 = CARTESIAN_POINT ( 'NONE',  ( 0.0000000000000000000, 0.0000000000000000000, -7.000000000000000000 ) ) ;
#210 = DIRECTION ( 'NONE',  ( -1.000000000000000000, 0.0000000000000000000, 0.0000000000000000000 ) ) ;
#211 = DIRECTION ( 'NONE',  ( -0.0000000000000000000, -0.0000000000000000000, -1.000000000000000000 ) ) ;
#212 = CARTESIAN_POINT ( 'NONE',  ( 0.0000000000000000000, 0.0000000000000000000, 0.001000000000001000100 ) ) ;
#213 = DIRECTION ( 'NONE',  ( -1.000000000000000000, 0.0000000000000000000, 0.0000000000000000000 ) ) ;
#214 = DIRECTION ( 'NONE',  ( 0.0000000000000000000, 0.0000000000000000000, -1.000000000000000000 ) ) ;
#215 = DIRECTION ( 'NONE',  ( -0.0000000000000000000, -0.0000000000000000000, -1.000000000000000000 ) ) ;
#216 = CARTESIAN_POINT ( 'NONE',  ( -3.250000000000000400, 0.0000000000000000000, 0.001000000000001000100 ) ) ;
#217 = LINE ( 'NONE', #216, #356 ) ;
#218 = CARTESIAN_POINT ( 'NONE',  ( 0.0000000000000000000, 0.0000000000000000000, -16.00000000000000000 ) ) ;
#219 = DIRECTION ( 'NONE',  ( -1.000000000000000000, 0.0000000000000000000, 0.0000000000000000000 ) ) ;
#220 = DIRECTION ( 'NONE',  ( 0.0000000000000000000, 0.0000000000000000000, -1.000000000000000000 ) ) ;
#221 = CARTESIAN_POINT ( 'NONE',  ( 0.0000000000000000000, 0.0000000000000000000, -16.00000000000000000 ) ) ;
#222 = DIRECTION ( 'NONE',  ( 1.000000000000000000, 0.0000000000000000000, 0.0000000000000000000 ) ) ;
#223 = DIRECTION ( 'NONE',  ( -0.0000000000000000000, -0.0000000000000000000, 1.000000000000000000 ) ) ;
#224 = CARTESIAN_POINT ( 'NONE',  ( 0.0000000000000000000, 0.0000000000000000000, -7.000000000000000000 ) ) ;
#225 = DIRECTION ( 'NONE',  ( -1.000000000000000000, 0.0000000000000000000, 0.0000000000000000000 ) ) ;
#226 = DIRECTION ( 'NONE',  ( -0.0000000000000000000, -0.0000000000000000000, -1.000000000000000000 ) ) ;
#227 = CARTESIAN_POINT ( 'NONE',  ( 0.0000000000000000000, 0.0000000000000000000, 0.001000000000001000100 ) ) ;
#228 = DIRECTION ( 'NONE',  ( -1.000000000000000000, 0.0000000000000000000, 0.0000000000000000000 ) ) ;
#229 = DIRECTION ( 'NONE',  ( 0.0000000000000000000, 0.0000000000000000000, -1.000000000000000000 ) ) ;
#230 = CARTESIAN_POINT ( 'NONE',  ( 0.0000000000000000000, 0.0000000000000000000, 0.0000000000000000000 ) ) ;
#231 = DIRECTION ( 'NONE',  ( 1.000000000000000000, 0.0000000000000000000, 0.0000000000000000000 ) ) ;
#232 = DIRECTION ( 'NONE',  ( -0.0000000000000000000, -0.0000000000000000000, -1.000000000000000000 ) ) ;
#233 = CARTESIAN_POINT ( 'NONE',  ( 0.0000000000000000000, 0.0000000000000000000, -7.000000000000000000 ) ) ;
#234 = DIRECTION ( 'NONE',  ( 1.000000000000000000, 0.0000000000000000000, 0.0000000000000000000 ) ) ;
#235 = EDGE_CURVE ( 'NONE', #110, #46, #256, .T. ) ;
#236 = CC_DESIGN_PERSON_AND_ORGANIZATION_ASSIGNMENT ( #190, #189, ( #1 ) ) ;
#237 = APPROVAL ( #186, 'UNSPECIFIED' ) ;
#238 = CC_DESIGN_PERSON_AND_ORGANIZATION_ASSIGNMENT ( #182, #181, ( #239 ) ) ;
#239 = PRODUCT_DEFINITION ( 'UNKNOWN', '', #335, #2 ) ;
#240 = LOCAL_TIME ( 9, 12, 55.00000000000000000, #362 ) ;
#241 = LOCAL_TIME ( 9, 12, 55.00000000000000000, #353 ) ;
#242 = CIRCLE ( 'NONE', #328, 9.500000000000000000 ) ;
#243 = CIRCLE ( 'NONE', #317, 10.00000000000000000 ) ;
#244 = CIRCLE ( 'NONE', #346, 3.250000000000000400 ) ;
#245 = CONICAL_SURFACE ( 'NONE', #375, 9.500000000000000000, 0.7853981633974466100 ) ;
#246 = CIRCLE ( 'NONE', #366, 3.250000000000000400 ) ;
#247 = CONICAL_SURFACE ( 'NONE', #371, 9.500000000000000000, 0.7853981633974466100 ) ;
#248 = CIRCLE ( 'NONE', #339, 3.250000000000000400 ) ;
#249 = CIRCLE ( 'NONE', #325, 10.00000000000000000 ) ;
#250 = CIRCLE ( 'NONE', #303, 3.250000000000000400 ) ;
#251 = CIRCLE ( 'NONE', #314, 5.500000000000000000 ) ;
#252 = CIRCLE ( 'NONE', #301, 9.500000000000000000 ) ;
#253 = CIRCLE ( 'NONE', #311, 5.500000000000000000 ) ;
#254 = EDGE_CURVE ( 'NONE', #78, #132, #264, .T. ) ;
#255 = EDGE_CURVE ( 'NONE', #94, #37, #253, .T. ) ;
#256 = CIRCLE ( 'NONE', #334, 10.00000000000000000 ) ;
#257 = EDGE_CURVE ( 'NONE', #37, #94, #263, .T. ) ;
#258 = EDGE_CURVE ( 'NONE', #94, #132, #112, .T. ) ;
#259 = EDGE_CURVE ( 'NONE', #57, #117, #294, .T. ) ;
#260 = ADVANCED_FACE ( 'NONE', ( #318 ), #324, .T. ) ;
#261 = ADVANCED_FACE ( 'NONE', ( #333, #326 ), #124, .T. ) ;
#262 = ADVANCED_FACE ( 'NONE', ( #316 ), #327, .F. ) ;
#263 = CIRCLE ( 'NONE', #309, 5.500000000000000000 ) ;
#264 = CIRCLE ( 'NONE', #307, 5.500000000000000000 ) ;
#265 = EDGE_CURVE ( 'NONE', #110, #57, #82, .T. ) ;
#266 = EDGE_CURVE ( 'NONE', #18, #140, #85, .T. ) ;
#267 = EDGE_CURVE ( 'NONE', #37, #78, #90, .T. ) ;
#268 = EDGE_CURVE ( 'NONE', #59, #57, #55, .T. ) ;
#269 = EDGE_CURVE ( 'NONE', #46, #110, #243, .T. ) ;
#270 = EDGE_CURVE ( 'NONE', #75, #59, #242, .T. ) ;
#271 = EDGE_CURVE ( 'NONE', #132, #78, #251, .T. ) ;
#272 = EDGE_CURVE ( 'NONE', #75, #117, #95, .T. ) ;
#273 = EDGE_CURVE ( 'NONE', #46, #117, #122, .T. ) ;
#274 = EDGE_CURVE ( 'NONE', #59, #75, #252, .T. ) ;
#275 = LOCAL_TIME ( 9, 12, 55.00000000000000000, #373 ) ;
#276 = APPROVAL ( #177, 'UNSPECIFIED' ) ;
#277 = ADVANCED_FACE ( 'NONE', ( #305, #322 ), #64, .F. ) ;
#278 = ADVANCED_FACE ( 'NONE', ( #313 ), #330, .T. ) ;
#279 = EDGE_CURVE ( 'NONE', #117, #57, #249, .T. ) ;
#280 = EDGE_CURVE ( 'NONE', #14, #18, #250, .T. ) ;
#281 = ADVANCED_FACE ( 'NONE', ( #368 ), #247, .T. ) ;
#282 = ADVANCED_FACE ( 'NONE', ( #355 ), #363, .F. ) ;
#283 = CC_DESIGN_PERSON_AND_ORGANIZATION_ASSIGNMENT ( #173, #172, ( #335 ) ) ;
#284 = ADVANCED_FACE ( 'NONE', ( #369 ), #374, .F. ) ;
#285 = EDGE_CURVE ( 'NONE', #35, #140, #248, .T. ) ;
#286 = EDGE_CURVE ( 'NONE', #14, #35, #217, .T. ) ;
#287 = CC_DESIGN_PERSON_AND_ORGANIZATION_ASSIGNMENT ( #168, #167, ( #359 ) ) ;
#288 = EDGE_CURVE ( 'NONE', #140, #35, #246, .T. ) ;
#289 = ADVANCED_FACE ( 'NONE', ( #341 ), #349, .F. ) ;
#290 = CC_DESIGN_DATE_AND_TIME_ASSIGNMENT ( #180, #179, ( #239 ) ) ;
#291 = LOCAL_TIME ( 9, 12, 55.00000000000000000, #364 ) ;
#292 = CC_DESIGN_DATE_AND_TIME_ASSIGNMENT ( #166, #165, ( #359 ) ) ;
#293 = EDGE_CURVE ( 'NONE', #18, #14, #244, .T. ) ;
#294 = CIRCLE ( 'NONE', #308, 10.00000000000000000 ) ;
#295 = ADVANCED_FACE ( 'NONE', ( #361, #343 ), #206, .T. ) ;
#296 = CC_DESIGN_PERSON_AND_ORGANIZATION_ASSIGNMENT ( #171, #170, ( #335 ) ) ;
#297 = LOCAL_TIME ( 9, 12, 55.00000000000000000, #336 ) ;
#298 = APPROVAL ( #163, 'UNSPECIFIED' ) ;
#299 = ADVANCED_FACE ( 'NONE', ( #354 ), #245, .T. ) ;
#300 = PRODUCT_RELATED_PRODUCT_CATEGORY ( 'detail', '', ( #1 ) ) ;
#301 = AXIS2_PLACEMENT_3D ( 'NONE', #156, #79, #77 ) ;
#302 = AXIS2_PLACEMENT_3D ( 'NONE', #25, #105, #103 ) ;
#303 = AXIS2_PLACEMENT_3D ( 'NONE', #233, #232, #231 ) ;
#304 = VECTOR ( 'NONE', #102, 1000.000000000000000 ) ;
#305 = FACE_BOUND ( 'NONE', #97, .T. ) ;
#306 = VECTOR ( 'NONE', #47, 1000.000000000000000 ) ;
#307 = AXIS2_PLACEMENT_3D ( 'NONE', #89, #32, #45 ) ;
#308 = AXIS2_PLACEMENT_3D ( 'NONE', #108, #134, #60 ) ;
#309 = AXIS2_PLACEMENT_3D ( 'NONE', #133, #68, #49 ) ;
#310 = VECTOR ( 'NONE', #23, 1000.000000000000000 ) ;
#311 = AXIS2_PLACEMENT_3D ( 'NONE', #135, #21, #27 ) ;
#312 = VECTOR ( 'NONE', #147, 1000.000000000000000 ) ;
#313 = FACE_OUTER_BOUND ( 'NONE', #101, .T. ) ;
#314 = AXIS2_PLACEMENT_3D ( 'NONE', #51, #74, #76 ) ;
#315 = VECTOR ( 'NONE', #40, 1000.000000000000000 ) ;
#316 = FACE_OUTER_BOUND ( 'NONE', #12, .T. ) ;
#317 = AXIS2_PLACEMENT_3D ( 'NONE', #146, #38, #151 ) ;
#318 = FACE_OUTER_BOUND ( 'NONE', #83, .T. ) ;
#319 = VECTOR ( 'NONE', #17, 1000.000000000000000 ) ;
#320 = AXIS2_PLACEMENT_3D ( 'NONE', #61, #41, #36 ) ;
#321 = AXIS2_PLACEMENT_3D ( 'NONE', #43, #100, #54 ) ;
#322 = FACE_OUTER_BOUND ( 'NONE', #149, .T. ) ;
#323 = CLOSED_SHELL ( 'NONE', ( #262, #299, #260, #282, #289, #278, #277, #261, #281, #295, #284 ) ) ;
#324 = CYLINDRICAL_SURFACE ( 'NONE', #321, 10.00000000000000000 ) ;
#325 = AXIS2_PLACEMENT_3D ( 'NONE', #87, #159, #234 ) ;
#326 = FACE_OUTER_BOUND ( 'NONE', #13, .T. ) ;
#327 = CYLINDRICAL_SURFACE ( 'NONE', #332, 5.500000000000000000 ) ;
#328 = AXIS2_PLACEMENT_3D ( 'NONE', #88, #153, #58 ) ;
#329 = VECTOR ( 'NONE', #30, 1000.000000000000000 ) ;
#330 = CYLINDRICAL_SURFACE ( 'NONE', #302, 10.00000000000000000 ) ;
#331 = AXIS2_PLACEMENT_3D ( 'NONE', #123, #34, #31 ) ;
#332 = AXIS2_PLACEMENT_3D ( 'NONE', #69, #129, #53 ) ;
#333 = FACE_BOUND ( 'NONE', #80, .T. ) ;
#334 = AXIS2_PLACEMENT_3D ( 'NONE', #63, #67, #145 ) ;
#335 = PRODUCT_DEFINITION_FORMATION_WITH_SPECIFIED_SOURCE ( 'ANY', '', #1, .NOT_KNOWN. ) ;
#336 = COORDINATED_UNIVERSAL_TIME_OFFSET ( 5, 0, .BEHIND. ) ;
#337 = CALENDAR_DATE ( 2012, 5, 4 ) ;
#338 = APPROVAL_PERSON_ORGANIZATION ( #187, #237, #185 ) ;
#339 = AXIS2_PLACEMENT_3D ( 'NONE', #221, #220, #219 ) ;
#340 = CALENDAR_DATE ( 2012, 5, 4 ) ;
#341 = FACE_OUTER_BOUND ( 'NONE', #111, .T. ) ;
#342 = CALENDAR_DATE ( 2012, 5, 4 ) ;
#343 = FACE_BOUND ( 'NONE', #10, .T. ) ;
#344 = AXIS2_PLACEMENT_3D ( 'NONE', #227, #226, #225 ) ;
#345 = AXIS2_PLACEMENT_3D ( 'NONE', #195, #194, #193 ) ;
#346 = AXIS2_PLACEMENT_3D ( 'NONE', #209, #208, #207 ) ;
#347 = CC_DESIGN_SECURITY_CLASSIFICATION ( #359, ( #335 ) ) ;
#348 = CC_DESIGN_APPROVAL ( #276, ( #335 ) ) ;
#349 = CYLINDRICAL_SURFACE ( 'NONE', #360, 3.250000000000000400 ) ;
#350 = AXIS2_PLACEMENT_3D ( 'NONE', #205, #204, #203 ) ;
#351 = CC_DESIGN_APPROVAL ( #298, ( #359 ) ) ;
#352 = CALENDAR_DATE ( 2012, 5, 4 ) ;
#353 = COORDINATED_UNIVERSAL_TIME_OFFSET ( 5, 0, .BEHIND. ) ;
#354 = FACE_OUTER_BOUND ( 'NONE', #142, .T. ) ;
#355 = FACE_OUTER_BOUND ( 'NONE', #113, .T. ) ;
#356 = VECTOR ( 'NONE', #215, 1000.000000000000000 ) ;
#357 = APPROVAL_PERSON_ORGANIZATION ( #164, #298, #162 ) ;
#358 = CC_DESIGN_APPROVAL ( #237, ( #239 ) ) ;
#359 = SECURITY_CLASSIFICATION ( '', '', #169 ) ;
#360 = AXIS2_PLACEMENT_3D ( 'NONE', #212, #211, #210 ) ;
#361 = FACE_OUTER_BOUND ( 'NONE', #8, .T. ) ;
#362 = COORDINATED_UNIVERSAL_TIME_OFFSET ( 5, 0, .BEHIND. ) ;
#363 = CYLINDRICAL_SURFACE ( 'NONE', #344, 3.250000000000000400 ) ;
#364 = COORDINATED_UNIVERSAL_TIME_OFFSET ( 5, 0, .BEHIND. ) ;
#365 = APPROVAL_PERSON_ORGANIZATION ( #178, #276, #176 ) ;
#366 = AXIS2_PLACEMENT_3D ( 'NONE', #218, #214, #213 ) ;
#367 = CALENDAR_DATE ( 2012, 5, 4 ) ;
#368 = FACE_OUTER_BOUND ( 'NONE', #20, .T. ) ;
#369 = FACE_OUTER_BOUND ( 'NONE', #62, .T. ) ;
#370 = AXIS2_PLACEMENT_3D ( 'NONE', #224, #223, #222 ) ;
#371 = AXIS2_PLACEMENT_3D ( 'NONE', #230, #229, #228 ) ;
#372 = ORGANIZATION ( 'UNSPECIFIED', 'UNSPECIFIED', '' ) ;
#373 = COORDINATED_UNIVERSAL_TIME_OFFSET ( 5, 0, .BEHIND. ) ;
#374 = CYLINDRICAL_SURFACE ( 'NONE', #370, 5.500000000000000000 ) ;
#375 = AXIS2_PLACEMENT_3D ( 'NONE', #202, #201, #200 ) ;
#376 =( GEOMETRIC_REPRESENTATION_CONTEXT ( 3 ) GLOBAL_UNCERTAINTY_ASSIGNED_CONTEXT ( ( #378 ) ) GLOBAL_UNIT_ASSIGNED_CONTEXT ( ( #199, #198, #197 ) ) REPRESENTATION_CONTEXT ( 'NONE', 'WORKASPACE' ) );
#377 = PERSON ( 'UNSPECIFIED', 'UNSPECIFIED', 'UNSPECIFIED', ('UNSPECIFIED'), ('UNSPECIFIED'), ('UNSPECIFIED') ) ;
#378 = UNCERTAINTY_MEASURE_WITH_UNIT (LENGTH_MEASURE( 1.000000000000000100E-005 ), #199, 'distance_accuracy_value', 'NONE');
#379 = ADVANCED_BREP_SHAPE_REPRESENTATION ( 'WDS-600-2025', ( #3, #345 ), #376 ) ;
ENDSEC;
END-ISO-10303-21;
