ISO-10303-21;
HEADER;
FILE_DESCRIPTION (( 'STEP AP214' ),
    '1' );
FILE_NAME ('WDS-600-202.step',
    '2011-02-01T14:36:42',
    ( 'SysAdmin' ),
    ( 'SolidWorks' ),
    'SwSTEP 2.0',
    'SolidWorks 2011',
    '' );
FILE_SCHEMA (( 'AUTOMOTIVE_DESIGN' ));
ENDSEC;

DATA;
#1 = ADVANCED_FACE ( 'NONE', ( #67 ), #109, .T. ) ;
#2 = EDGE_LOOP ( 'NONE', ( #16, #8 ) ) ;
#3 = EDGE_CURVE ( 'NONE', #83, #82, #122, .T. ) ;
#4 = ADVANCED_FACE ( 'NONE', ( #107, #98 ), #112, .T. ) ;
#5 = EDGE_LOOP ( 'NONE', ( #13, #10 ) ) ;
#6 = EDGE_LOOP ( 'NONE', ( #103, #24, #25, #34 ) ) ;
#7 = ORIENTED_EDGE ( 'NONE', *, *, #120, .F. ) ;
#8 = ORIENTED_EDGE ( 'NONE', *, *, #55, .F. ) ;
#9 = EDGE_LOOP ( 'NONE', ( #11, #15 ) ) ;
#10 = ORIENTED_EDGE ( 'NONE', *, *, #85, .F. ) ;
#11 = ORIENTED_EDGE ( 'NONE', *, *, #14, .T. ) ;
#12 = EDGE_LOOP ( 'NONE', ( #7, #18 ) ) ;
#13 = ORIENTED_EDGE ( 'NONE', *, *, #22, .F. ) ;
#14 = EDGE_CURVE ( 'NONE', #130, #60, #33, .T. ) ;
#15 = ORIENTED_EDGE ( 'NONE', *, *, #40, .T. ) ;
#16 = ORIENTED_EDGE ( 'NONE', *, *, #123, .F. ) ;
#17 = DIRECTION ( 'NONE',  ( 1.000000000000000000, 0.0000000000000000000, 0.0000000000000000000 ) ) ;
#18 = ORIENTED_EDGE ( 'NONE', *, *, #128, .F. ) ;
#19 =( NAMED_UNIT ( * ) SI_UNIT ( $, .STERADIAN. ) SOLID_ANGLE_UNIT ( ) );
#20 = ADVANCED_FACE ( 'NONE', ( #111, #38 ), #151, .T. ) ;
#21 = EDGE_LOOP ( 'NONE', ( #23, #118 ) ) ;
#22 = EDGE_CURVE ( 'NONE', #80, #56, #139, .T. ) ;
#23 = ORIENTED_EDGE ( 'NONE', *, *, #28, .T. ) ;
#24 = ORIENTED_EDGE ( 'NONE', *, *, #14, .F. ) ;
#25 = ORIENTED_EDGE ( 'NONE', *, *, #75, .T. ) ;
#26 = CARTESIAN_POINT ( 'NONE',  ( 0.0000000000000000000, 0.0000000000000000000, 0.0000000000000000000 ) ) ;
#27 = AXIS2_PLACEMENT_3D ( 'NONE', #26, #32, #31 ) ;
#28 = EDGE_CURVE ( 'NONE', #66, #96, #144, .T. ) ;
#29 = ORIENTED_EDGE ( 'NONE', *, *, #3, .T. ) ;
#30 = CARTESIAN_POINT ( 'NONE',  ( 0.0000000000000000000, 0.0000000000000000000, -7.000000000000000000 ) ) ;
#31 = DIRECTION ( 'NONE',  ( 1.000000000000000000, 0.0000000000000000000, 0.0000000000000000000 ) ) ;
#32 = DIRECTION ( 'NONE',  ( 0.0000000000000000000, 0.0000000000000000000, 1.000000000000000000 ) ) ;
#33 = CIRCLE ( 'NONE', #27, 9.500000000000000000 ) ;
#34 = ORIENTED_EDGE ( 'NONE', *, *, #3, .F. ) ;
#35 = ADVANCED_FACE ( 'NONE', ( #186, #281 ), #188, .F. ) ;
#36 =( LENGTH_UNIT ( ) NAMED_UNIT ( * ) SI_UNIT ( .MILLI., .METRE. ) );
#37 = DIRECTION ( 'NONE',  ( 0.0000000000000000000, 0.0000000000000000000, 1.000000000000000000 ) ) ;
#38 = FACE_OUTER_BOUND ( 'NONE', #9, .T. ) ;
#39 = AXIS2_PLACEMENT_3D ( 'NONE', #30, #37, #17 ) ;
#40 = EDGE_CURVE ( 'NONE', #60, #130, #280, .T. ) ;
#41 = ORIENTED_EDGE ( 'NONE', *, *, #88, .T. ) ;
#42 = CLOSED_SHELL ( 'NONE', ( #119, #90, #79, #134, #132, #127, #35, #20, #1, #4, #117 ) ) ;
#43 = DIRECTION ( 'NONE',  ( 1.000000000000000000, 0.0000000000000000000, -0.0000000000000000000 ) ) ;
#44 = DIRECTION ( 'NONE',  ( 0.0000000000000000000, 0.0000000000000000000, 1.000000000000000000 ) ) ;
#45 = DIRECTION ( 'NONE',  ( 1.000000000000000000, 0.0000000000000000000, 0.0000000000000000000 ) ) ;
#46 = AXIS2_PLACEMENT_3D ( 'NONE', #106, #110, #45 ) ;
#47 = CARTESIAN_POINT ( 'NONE',  ( 0.0000000000000000000, 0.0000000000000000000, -7.000000000000000000 ) ) ;
#48 = ORIENTED_EDGE ( 'NONE', *, *, #50, .T. ) ;
#49 = ORIENTED_EDGE ( 'NONE', *, *, #120, .T. ) ;
#50 = EDGE_CURVE ( 'NONE', #71, #82, #183, .T. ) ;
#51 = EDGE_CURVE ( 'NONE', #70, #83, #209, .T. ) ;
#52 = EDGE_CURVE ( 'NONE', #76, #115, #286, .T. ) ;
#53 = ORIENTED_EDGE ( 'NONE', *, *, #128, .T. ) ;
#54 = VERTEX_POINT ( 'NONE', #211 ) ;
#55 = EDGE_CURVE ( 'NONE', #115, #54, #256, .T. ) ;
#56 = VERTEX_POINT ( 'NONE', #283 ) ;
#57 = ORIENTED_EDGE ( 'NONE', *, *, #50, .F. ) ;
#58 = ORIENTED_EDGE ( 'NONE', *, *, #63, .T. ) ;
#59 = ORIENTED_EDGE ( 'NONE', *, *, #40, .F. ) ;
#60 = VERTEX_POINT ( 'NONE', #282 ) ;
#61 = EDGE_LOOP ( 'NONE', ( #58, #99 ) ) ;
#62 = ORIENTED_EDGE ( 'NONE', *, *, #92, .T. ) ;
#63 = EDGE_CURVE ( 'NONE', #135, #76, #268, .T. ) ;
#64 = ORIENTED_EDGE ( 'NONE', *, *, #51, .F. ) ;
#65 = EDGE_LOOP ( 'NONE', ( #49, #48, #114, #64 ) ) ;
#66 = VERTEX_POINT ( 'NONE', #185 ) ;
#67 = FACE_OUTER_BOUND ( 'NONE', #6, .T. ) ;
#68 = ORIENTED_EDGE ( 'NONE', *, *, #69, .T. ) ;
#69 = EDGE_CURVE ( 'NONE', #60, #83, #259, .T. ) ;
#70 = VERTEX_POINT ( 'NONE', #262 ) ;
#71 = VERTEX_POINT ( 'NONE', #308 ) ;
#72 = ORIENTED_EDGE ( 'NONE', *, *, #73, .F. ) ;
#73 = EDGE_CURVE ( 'NONE', #82, #83, #307, .T. ) ;
#74 = EDGE_LOOP ( 'NONE', ( #137, #136, #91, #78 ) ) ;
#75 = EDGE_CURVE ( 'NONE', #130, #82, #296, .T. ) ;
#76 = VERTEX_POINT ( 'NONE', #260 ) ;
#77 = ORIENTED_EDGE ( 'NONE', *, *, #75, .F. ) ;
#78 = ORIENTED_EDGE ( 'NONE', *, *, #92, .F. ) ;
#79 = ADVANCED_FACE ( 'NONE', ( #205 ), #302, .T. ) ;
#80 = VERTEX_POINT ( 'NONE', #263 ) ;
#81 = EDGE_CURVE ( 'NONE', #96, #56, #277, .T. ) ;
#82 = VERTEX_POINT ( 'NONE', #273 ) ;
#83 = VERTEX_POINT ( 'NONE', #275 ) ;
#84 = ORIENTED_EDGE ( 'NONE', *, *, #81, .T. ) ;
#85 = EDGE_CURVE ( 'NONE', #56, #80, #276, .T. ) ;
#86 = EDGE_LOOP ( 'NONE', ( #59, #68, #72, #77 ) ) ;
#87 = ORIENTED_EDGE ( 'NONE', *, *, #85, .T. ) ;
#88 = EDGE_CURVE ( 'NONE', #66, #80, #239, .T. ) ;
#89 = ORIENTED_EDGE ( 'NONE', *, *, #88, .F. ) ;
#90 = ADVANCED_FACE ( 'NONE', ( #240 ), #274, .T. ) ;
#91 = ORIENTED_EDGE ( 'NONE', *, *, #55, .T. ) ;
#92 = EDGE_CURVE ( 'NONE', #135, #54, #231, .T. ) ;
#93 = EDGE_LOOP ( 'NONE', ( #57, #53, #126, #29 ) ) ;
#94 = DIRECTION ( 'NONE',  ( 0.0000000000000000000, 0.0000000000000000000, -1.000000000000000000 ) ) ;
#95 = CARTESIAN_POINT ( 'NONE',  ( 0.0000000000000000000, 0.0000000000000000000, 0.0000000000000000000 ) ) ;
#96 = VERTEX_POINT ( 'NONE', #229 ) ;
#97 = ORIENTED_EDGE ( 'NONE', *, *, #22, .T. ) ;
#98 = FACE_BOUND ( 'NONE', #61, .T. ) ;
#99 = ORIENTED_EDGE ( 'NONE', *, *, #129, .T. ) ;
#100 = EDGE_LOOP ( 'NONE', ( #101, #102, #41, #97 ) ) ;
#101 = ORIENTED_EDGE ( 'NONE', *, *, #81, .F. ) ;
#102 = ORIENTED_EDGE ( 'NONE', *, *, #28, .F. ) ;
#103 = ORIENTED_EDGE ( 'NONE', *, *, #69, .F. ) ;
#104 = ORIENTED_EDGE ( 'NONE', *, *, #116, .F. ) ;
#105 = DIRECTION ( 'NONE',  ( -1.000000000000000000, 0.0000000000000000000, 0.0000000000000000000 ) ) ;
#106 = CARTESIAN_POINT ( 'NONE',  ( 0.0000000000000000000, 0.0000000000000000000, -0.5000000000000022200 ) ) ;
#107 = FACE_OUTER_BOUND ( 'NONE', #21, .T. ) ;
#108 = AXIS2_PLACEMENT_3D ( 'NONE', #47, #44, #43 ) ;
#109 = CONICAL_SURFACE ( 'NONE', #113, 9.500000000000000000, 0.7853981633974466100 ) ;
#110 = DIRECTION ( 'NONE',  ( 0.0000000000000000000, 0.0000000000000000000, -1.000000000000000000 ) ) ;
#111 = FACE_BOUND ( 'NONE', #5, .T. ) ;
#112 = PLANE ( 'NONE',  #108 ) ;
#113 = AXIS2_PLACEMENT_3D ( 'NONE', #95, #94, #105 ) ;
#114 = ORIENTED_EDGE ( 'NONE', *, *, #73, .T. ) ;
#115 = VERTEX_POINT ( 'NONE', #233 ) ;
#116 = EDGE_CURVE ( 'NONE', #96, #66, #224, .T. ) ;
#117 = ADVANCED_FACE ( 'NONE', ( #297 ), #228, .F. ) ;
#118 = ORIENTED_EDGE ( 'NONE', *, *, #116, .T. ) ;
#119 = ADVANCED_FACE ( 'NONE', ( #223 ), #218, .F. ) ;
#120 = EDGE_CURVE ( 'NONE', #70, #71, #232, .T. ) ;
#121 = MANIFOLD_SOLID_BREP ( 'Cut-Extrude3', #42 ) ;
#122 = CIRCLE ( 'NONE', #46, 10.00000000000000000 ) ;
#123 = EDGE_CURVE ( 'NONE', #54, #115, #177, .T. ) ;
#124 = ORIENTED_EDGE ( 'NONE', *, *, #52, .F. ) ;
#125 = ORIENTED_EDGE ( 'NONE', *, *, #123, .T. ) ;
#126 = ORIENTED_EDGE ( 'NONE', *, *, #51, .T. ) ;
#127 = ADVANCED_FACE ( 'NONE', ( #216 ), #182, .T. ) ;
#128 = EDGE_CURVE ( 'NONE', #71, #70, #189, .T. ) ;
#129 = EDGE_CURVE ( 'NONE', #76, #135, #192, .T. ) ;
#130 = VERTEX_POINT ( 'NONE', #165 ) ;
#131 = ORIENTED_EDGE ( 'NONE', *, *, #63, .F. ) ;
#132 = ADVANCED_FACE ( 'NONE', ( #201 ), #141, .F. ) ;
#133 = EDGE_LOOP ( 'NONE', ( #124, #131, #62, #125 ) ) ;
#134 = ADVANCED_FACE ( 'NONE', ( #176 ), #196, .F. ) ;
#135 = VERTEX_POINT ( 'NONE', #247 ) ;
#136 = ORIENTED_EDGE ( 'NONE', *, *, #52, .T. ) ;
#137 = ORIENTED_EDGE ( 'NONE', *, *, #129, .F. ) ;
#138 = EDGE_LOOP ( 'NONE', ( #104, #84, #87, #89 ) ) ;
#139 = CIRCLE ( 'NONE', #152, 5.500000000000000000 ) ;
#140 = CARTESIAN_POINT ( 'NONE',  ( 0.0000000000000000000, 0.0000000000000000000, 0.0000000000000000000 ) ) ;
#141 = CYLINDRICAL_SURFACE ( 'NONE', #155, 3.250000000000000400 ) ;
#142 = AXIS2_PLACEMENT_3D ( 'NONE', #140, #154, #153 ) ;
#143 =( NAMED_UNIT ( * ) PLANE_ANGLE_UNIT ( ) SI_UNIT ( $, .RADIAN. ) );
#144 = CIRCLE ( 'NONE', #39, 5.500000000000000000 ) ;
#145 = CARTESIAN_POINT ( 'NONE',  ( 0.0000000000000000000, 0.0000000000000000000, 0.0009999999999992653700 ) ) ;
#146 = DIRECTION ( 'NONE',  ( 1.000000000000000000, 0.0000000000000000000, 0.0000000000000000000 ) ) ;
#147 = DIRECTION ( 'NONE',  ( 0.0000000000000000000, 0.0000000000000000000, 1.000000000000000000 ) ) ;
#148 = CARTESIAN_POINT ( 'NONE',  ( 0.0000000000000000000, 0.0000000000000000000, 0.0000000000000000000 ) ) ;
#149 = DIRECTION ( 'NONE',  ( -1.000000000000000000, 0.0000000000000000000, 0.0000000000000000000 ) ) ;
#150 = DIRECTION ( 'NONE',  ( -0.0000000000000000000, -0.0000000000000000000, -1.000000000000000000 ) ) ;
#151 = PLANE ( 'NONE',  #142 ) ;
#152 = AXIS2_PLACEMENT_3D ( 'NONE', #148, #147, #146 ) ;
#153 = DIRECTION ( 'NONE',  ( 1.000000000000000000, 0.0000000000000000000, -0.0000000000000000000 ) ) ;
#154 = DIRECTION ( 'NONE',  ( 0.0000000000000000000, 0.0000000000000000000, 1.000000000000000000 ) ) ;
#155 = AXIS2_PLACEMENT_3D ( 'NONE', #145, #150, #149 ) ;
#156 =( NAMED_UNIT ( * ) SI_UNIT ( $, .STERADIAN. ) SOLID_ANGLE_UNIT ( ) );
#157 =( NAMED_UNIT ( * ) PLANE_ANGLE_UNIT ( ) SI_UNIT ( $, .RADIAN. ) );
#158 =( LENGTH_UNIT ( ) NAMED_UNIT ( * ) SI_UNIT ( .MILLI., .METRE. ) );
#159 = MECHANICAL_DESIGN_GEOMETRIC_PRESENTATION_REPRESENTATION (  '', ( #161 ), #203 ) ;
#160 = PRESENTATION_LAYER_ASSIGNMENT (  '', '', ( #161 ) ) ;
#161 = STYLED_ITEM ( 'NONE', ( #162 ), #121 ) ;
#162 = PRESENTATION_STYLE_ASSIGNMENT (( #163 ) ) ;
#163 = SURFACE_STYLE_USAGE ( .BOTH. , #164 ) ;
#164 = SURFACE_SIDE_STYLE ('',( #246 ) ) ;
#165 = CARTESIAN_POINT ( 'NONE',  ( -9.500000000000000000, 0.0000000000000000000, 0.0000000000000000000 ) ) ;
#166 = COLOUR_RGB ( '',0.5019607843137254800, 0.5019607843137254800, 0.5019607843137254800 ) ;
#167 = DIRECTION ( 'NONE',  ( 1.000000000000000000, 0.0000000000000000000, 0.0000000000000000000 ) ) ;
#168 = DIRECTION ( 'NONE',  ( 0.0000000000000000000, 0.0000000000000000000, 1.000000000000000000 ) ) ;
#169 = CARTESIAN_POINT ( 'NONE',  ( 0.0000000000000000000, 0.0000000000000000000, -12.00000000000000000 ) ) ;
#170 = AXIS2_PLACEMENT_3D ( 'NONE', #169, #168, #167 ) ;
#171 = AXIS2_PLACEMENT_3D ( 'NONE', #200, #199, #198 ) ;
#172 = DIRECTION ( 'NONE',  ( 1.000000000000000000, 0.0000000000000000000, 0.0000000000000000000 ) ) ;
#173 = DIRECTION ( 'NONE',  ( -0.0000000000000000000, -0.0000000000000000000, 1.000000000000000000 ) ) ;
#174 = CARTESIAN_POINT ( 'NONE',  ( 0.0000000000000000000, 0.0000000000000000000, -7.000000000000000000 ) ) ;
#175 = AXIS2_PLACEMENT_3D ( 'NONE', #174, #173, #172 ) ;
#176 = FACE_OUTER_BOUND ( 'NONE', #74, .T. ) ;
#177 = CIRCLE ( 'NONE', #171, 3.250000000000000400 ) ;
#178 = FILL_AREA_STYLE ('',( #215 ) ) ;
#179 = DIRECTION ( 'NONE',  ( 1.000000000000000000, 0.0000000000000000000, 0.0000000000000000000 ) ) ;
#180 = DIRECTION ( 'NONE',  ( -0.0000000000000000000, -0.0000000000000000000, 1.000000000000000000 ) ) ;
#181 = CARTESIAN_POINT ( 'NONE',  ( 0.0000000000000000000, 0.0000000000000000000, -7.000000000000000000 ) ) ;
#182 = CYLINDRICAL_SURFACE ( 'NONE', #202, 10.00000000000000000 ) ;
#183 = LINE ( 'NONE', #214, #213 ) ;
#184 = DIRECTION ( 'NONE',  ( 0.0000000000000000000, 0.0000000000000000000, 1.000000000000000000 ) ) ;
#185 = CARTESIAN_POINT ( 'NONE',  ( 5.500000000000000000, 0.0000000000000000000, -7.000000000000000000 ) ) ;
#186 = FACE_BOUND ( 'NONE', #2, .T. ) ;
#187 = CARTESIAN_POINT ( 'NONE',  ( 0.0000000000000000000, 0.0000000000000000000, -12.00000000000000000 ) ) ;
#188 = PLANE ( 'NONE',  #278 ) ;
#189 = CIRCLE ( 'NONE', #255, 10.00000000000000000 ) ;
#190 = DIRECTION ( 'NONE',  ( -0.0000000000000000000, -0.0000000000000000000, -1.000000000000000000 ) ) ;
#191 = CARTESIAN_POINT ( 'NONE',  ( 0.0000000000000000000, 0.0000000000000000000, 0.0009999999999992653700 ) ) ;
#192 = CIRCLE ( 'NONE', #197, 3.250000000000000400 ) ;
#193 = DIRECTION ( 'NONE',  ( 1.000000000000000000, 0.0000000000000000000, 0.0000000000000000000 ) ) ;
#194 = DIRECTION ( 'NONE',  ( 0.0000000000000000000, 0.0000000000000000000, 1.000000000000000000 ) ) ;
#195 = CARTESIAN_POINT ( 'NONE',  ( 0.0000000000000000000, 0.0000000000000000000, -12.00000000000000000 ) ) ;
#196 = CYLINDRICAL_SURFACE ( 'NONE', #252, 3.250000000000000400 ) ;
#197 = AXIS2_PLACEMENT_3D ( 'NONE', #251, #250, #249 ) ;
#198 = DIRECTION ( 'NONE',  ( -1.000000000000000000, 0.0000000000000000000, 0.0000000000000000000 ) ) ;
#199 = DIRECTION ( 'NONE',  ( 0.0000000000000000000, 0.0000000000000000000, -1.000000000000000000 ) ) ;
#200 = CARTESIAN_POINT ( 'NONE',  ( 0.0000000000000000000, 0.0000000000000000000, -12.00000000000000000 ) ) ;
#201 = FACE_OUTER_BOUND ( 'NONE', #133, .T. ) ;
#202 = AXIS2_PLACEMENT_3D ( 'NONE', #195, #194, #193 ) ;
#203 =( GEOMETRIC_REPRESENTATION_CONTEXT ( 3 ) GLOBAL_UNCERTAINTY_ASSIGNED_CONTEXT ( ( #204 ) ) GLOBAL_UNIT_ASSIGNED_CONTEXT ( ( #158, #157, #156 ) ) REPRESENTATION_CONTEXT ( 'NONE', 'WORKASPACE' ) );
#204 = UNCERTAINTY_MEASURE_WITH_UNIT (LENGTH_MEASURE( 1.000000000000000100E-005 ), #158, 'distance_accuracy_value', 'NONE');
#205 = FACE_OUTER_BOUND ( 'NONE', #65, .T. ) ;
#206 = DIRECTION ( 'NONE',  ( 0.0000000000000000000, 0.0000000000000000000, 1.000000000000000000 ) ) ;
#207 = VECTOR ( 'NONE', #206, 1000.000000000000000 ) ;
#208 = CARTESIAN_POINT ( 'NONE',  ( 10.00000000000000000, 0.0000000000000000000, -12.00000000000000000 ) ) ;
#209 = LINE ( 'NONE', #208, #207 ) ;
#210 = CARTESIAN_POINT ( 'NONE',  ( 3.250000000000000400, 3.980102097228898200E-016, 0.0009999999999992653700 ) ) ;
#211 = CARTESIAN_POINT ( 'NONE',  ( -3.250000000000000400, 0.0000000000000000000, -12.00000000000000000 ) ) ;
#212 = DIRECTION ( 'NONE',  ( 0.0000000000000000000, 0.0000000000000000000, 1.000000000000000000 ) ) ;
#213 = VECTOR ( 'NONE', #212, 1000.000000000000000 ) ;
#214 = CARTESIAN_POINT ( 'NONE',  ( -10.00000000000000000, 1.224646799147353300E-015, -12.00000000000000000 ) ) ;
#215 = FILL_AREA_STYLE_COLOUR ( '', #166 ) ;
#216 = FACE_OUTER_BOUND ( 'NONE', #93, .T. ) ;
#217 = CARTESIAN_POINT ( 'NONE',  ( 0.0000000000000000000, 0.0000000000000000000, -12.00000000000000000 ) ) ;
#218 = CYLINDRICAL_SURFACE ( 'NONE', #175, 5.500000000000000000 ) ;
#219 = DIRECTION ( 'NONE',  ( 1.000000000000000000, 0.0000000000000000000, 0.0000000000000000000 ) ) ;
#220 = DIRECTION ( 'NONE',  ( 0.0000000000000000000, 0.0000000000000000000, 1.000000000000000000 ) ) ;
#221 = CARTESIAN_POINT ( 'NONE',  ( 0.0000000000000000000, 0.0000000000000000000, -7.000000000000000000 ) ) ;
#222 = AXIS2_PLACEMENT_3D ( 'NONE', #221, #220, #219 ) ;
#223 = FACE_OUTER_BOUND ( 'NONE', #138, .T. ) ;
#224 = CIRCLE ( 'NONE', #222, 5.500000000000000000 ) ;
#225 = AXIS2_PLACEMENT_3D ( 'NONE', #181, #180, #179 ) ;
#226 = DIRECTION ( 'NONE',  ( -0.0000000000000000000, -0.0000000000000000000, -1.000000000000000000 ) ) ;
#227 = VECTOR ( 'NONE', #226, 1000.000000000000000 ) ;
#228 = CYLINDRICAL_SURFACE ( 'NONE', #225, 5.500000000000000000 ) ;
#229 = CARTESIAN_POINT ( 'NONE',  ( -5.500000000000000000, 6.735557395310442000E-016, -7.000000000000000000 ) ) ;
#230 = CARTESIAN_POINT ( 'NONE',  ( -3.250000000000000400, 0.0000000000000000000, 0.0009999999999992653700 ) ) ;
#231 = LINE ( 'NONE', #230, #227 ) ;
#232 = CIRCLE ( 'NONE', #170, 10.00000000000000000 ) ;
#233 = CARTESIAN_POINT ( 'NONE',  ( 3.250000000000000400, 3.980102097228898200E-016, -12.00000000000000000 ) ) ;
#234 = DIRECTION ( 'NONE',  ( -1.000000000000000000, 0.0000000000000000000, 0.0000000000000000000 ) ) ;
#235 = DIRECTION ( 'NONE',  ( 0.0000000000000000000, 0.0000000000000000000, -1.000000000000000000 ) ) ;
#236 = DIRECTION ( 'NONE',  ( -0.0000000000000000000, -0.0000000000000000000, 1.000000000000000000 ) ) ;
#237 = VECTOR ( 'NONE', #236, 1000.000000000000000 ) ;
#238 = CARTESIAN_POINT ( 'NONE',  ( 5.500000000000000000, 0.0000000000000000000, -7.000000000000000000 ) ) ;
#239 = LINE ( 'NONE', #238, #237 ) ;
#240 = FACE_OUTER_BOUND ( 'NONE', #86, .T. ) ;
#241 = AXIS2_PLACEMENT_3D ( 'NONE', #245, #235, #234 ) ;
#242 = DIRECTION ( 'NONE',  ( 1.000000000000000000, 0.0000000000000000000, 0.0000000000000000000 ) ) ;
#243 = DIRECTION ( 'NONE',  ( 0.0000000000000000000, 0.0000000000000000000, 1.000000000000000000 ) ) ;
#244 = CARTESIAN_POINT ( 'NONE',  ( 0.0000000000000000000, 0.0000000000000000000, 0.0000000000000000000 ) ) ;
#245 = CARTESIAN_POINT ( 'NONE',  ( 0.0000000000000000000, 0.0000000000000000000, 0.0000000000000000000 ) ) ;
#246 = SURFACE_STYLE_FILL_AREA ( #178 ) ;
#247 = CARTESIAN_POINT ( 'NONE',  ( -3.250000000000000400, 0.0000000000000000000, -7.000000000000000000 ) ) ;
#248 = DIRECTION ( 'NONE',  ( -1.000000000000000000, 0.0000000000000000000, 0.0000000000000000000 ) ) ;
#249 = DIRECTION ( 'NONE',  ( 1.000000000000000000, 0.0000000000000000000, 0.0000000000000000000 ) ) ;
#250 = DIRECTION ( 'NONE',  ( -0.0000000000000000000, -0.0000000000000000000, -1.000000000000000000 ) ) ;
#251 = CARTESIAN_POINT ( 'NONE',  ( 0.0000000000000000000, 0.0000000000000000000, -7.000000000000000000 ) ) ;
#252 = AXIS2_PLACEMENT_3D ( 'NONE', #191, #190, #248 ) ;
#253 = DIRECTION ( 'NONE',  ( 1.000000000000000000, 0.0000000000000000000, 0.0000000000000000000 ) ) ;
#254 = DIRECTION ( 'NONE',  ( 0.0000000000000000000, 0.0000000000000000000, 1.000000000000000000 ) ) ;
#255 = AXIS2_PLACEMENT_3D ( 'NONE', #217, #254, #253 ) ;
#256 = CIRCLE ( 'NONE', #267, 3.250000000000000400 ) ;
#257 = CARTESIAN_POINT ( 'NONE',  ( 0.0000000000000000000, 0.0000000000000000000, -7.000000000000000000 ) ) ;
#258 = CARTESIAN_POINT ( 'NONE',  ( 9.500000000000000000, 1.163414459189985500E-015, 0.0000000000000000000 ) ) ;
#259 = LINE ( 'NONE', #258, #306 ) ;
#260 = CARTESIAN_POINT ( 'NONE',  ( 3.250000000000000400, 3.980102097228898200E-016, -7.000000000000000000 ) ) ;
#261 = DIRECTION ( 'NONE',  ( -0.0000000000000000000, -0.0000000000000000000, -1.000000000000000000 ) ) ;
#262 = CARTESIAN_POINT ( 'NONE',  ( 10.00000000000000000, 0.0000000000000000000, -12.00000000000000000 ) ) ;
#263 = CARTESIAN_POINT ( 'NONE',  ( 5.500000000000000000, 0.0000000000000000000, 0.0000000000000000000 ) ) ;
#264 = DIRECTION ( 'NONE',  ( -1.000000000000000000, 0.0000000000000000000, 0.0000000000000000000 ) ) ;
#265 = DIRECTION ( 'NONE',  ( 0.0000000000000000000, 0.0000000000000000000, -1.000000000000000000 ) ) ;
#266 = CARTESIAN_POINT ( 'NONE',  ( 0.0000000000000000000, 0.0000000000000000000, -12.00000000000000000 ) ) ;
#267 = AXIS2_PLACEMENT_3D ( 'NONE', #266, #265, #264 ) ;
#268 = CIRCLE ( 'NONE', #287, 3.250000000000000400 ) ;
#269 = AXIS2_PLACEMENT_3D ( 'NONE', #244, #243, #242 ) ;
#270 = DIRECTION ( 'NONE',  ( -0.0000000000000000000, -0.0000000000000000000, 1.000000000000000000 ) ) ;
#271 = VECTOR ( 'NONE', #270, 1000.000000000000000 ) ;
#272 = CARTESIAN_POINT ( 'NONE',  ( -5.500000000000000000, 6.735557395310442000E-016, -7.000000000000000000 ) ) ;
#273 = CARTESIAN_POINT ( 'NONE',  ( -10.00000000000000000, 1.224646799147353300E-015, -0.5000000000000022200 ) ) ;
#274 = CONICAL_SURFACE ( 'NONE', #241, 9.500000000000000000, 0.7853981633974466100 ) ;
#275 = CARTESIAN_POINT ( 'NONE',  ( 10.00000000000000000, 0.0000000000000000000, -0.5000000000000022200 ) ) ;
#276 = CIRCLE ( 'NONE', #269, 5.500000000000000000 ) ;
#277 = LINE ( 'NONE', #272, #271 ) ;
#278 = AXIS2_PLACEMENT_3D ( 'NONE', #187, #184, #279 ) ;
#279 = DIRECTION ( 'NONE',  ( 1.000000000000000000, 0.0000000000000000000, -0.0000000000000000000 ) ) ;
#280 = CIRCLE ( 'NONE', #291, 9.500000000000000000 ) ;
#281 = FACE_OUTER_BOUND ( 'NONE', #12, .T. ) ;
#282 = CARTESIAN_POINT ( 'NONE',  ( 9.500000000000000000, 1.194030629168669500E-015, 0.0000000000000000000 ) ) ;
#283 = CARTESIAN_POINT ( 'NONE',  ( -5.500000000000000000, 6.735557395310442000E-016, 0.0000000000000000000 ) ) ;
#284 = DIRECTION ( 'NONE',  ( -0.0000000000000000000, -0.0000000000000000000, -1.000000000000000000 ) ) ;
#285 = VECTOR ( 'NONE', #284, 1000.000000000000000 ) ;
#286 = LINE ( 'NONE', #210, #285 ) ;
#287 = AXIS2_PLACEMENT_3D ( 'NONE', #257, #261, #310 ) ;
#288 = DIRECTION ( 'NONE',  ( 1.000000000000000000, 0.0000000000000000000, 0.0000000000000000000 ) ) ;
#289 = DIRECTION ( 'NONE',  ( 0.0000000000000000000, 0.0000000000000000000, 1.000000000000000000 ) ) ;
#290 = CARTESIAN_POINT ( 'NONE',  ( 0.0000000000000000000, 0.0000000000000000000, 0.0000000000000000000 ) ) ;
#291 = AXIS2_PLACEMENT_3D ( 'NONE', #290, #289, #288 ) ;
#292 = DIRECTION ( 'NONE',  ( 1.000000000000000000, 0.0000000000000000000, 0.0000000000000000000 ) ) ;
#293 = DIRECTION ( 'NONE',  ( -0.7071067811865463500, 0.0000000000000000000, -0.7071067811865487900 ) ) ;
#294 = VECTOR ( 'NONE', #293, 1000.000000000000000 ) ;
#295 = CARTESIAN_POINT ( 'NONE',  ( -9.500000000000000000, 0.0000000000000000000, 0.0000000000000000000 ) ) ;
#296 = LINE ( 'NONE', #295, #294 ) ;
#297 = FACE_OUTER_BOUND ( 'NONE', #100, .T. ) ;
#298 = DIRECTION ( 'NONE',  ( 1.000000000000000000, 0.0000000000000000000, 0.0000000000000000000 ) ) ;
#299 = DIRECTION ( 'NONE',  ( 0.0000000000000000000, 0.0000000000000000000, -1.000000000000000000 ) ) ;
#300 = CARTESIAN_POINT ( 'NONE',  ( 0.0000000000000000000, 0.0000000000000000000, -0.5000000000000022200 ) ) ;
#301 = AXIS2_PLACEMENT_3D ( 'NONE', #300, #299, #298 ) ;
#302 = CYLINDRICAL_SURFACE ( 'NONE', #303, 10.00000000000000000 ) ;
#303 = AXIS2_PLACEMENT_3D ( 'NONE', #304, #309, #292 ) ;
#304 = CARTESIAN_POINT ( 'NONE',  ( 0.0000000000000000000, 0.0000000000000000000, -12.00000000000000000 ) ) ;
#305 = DIRECTION ( 'NONE',  ( 0.7071067811865463500, 8.659560562354918100E-017, -0.7071067811865487900 ) ) ;
#306 = VECTOR ( 'NONE', #305, 1000.000000000000000 ) ;
#307 = CIRCLE ( 'NONE', #301, 10.00000000000000000 ) ;
#308 = CARTESIAN_POINT ( 'NONE',  ( -10.00000000000000000, 1.224646799147353300E-015, -12.00000000000000000 ) ) ;
#309 = DIRECTION ( 'NONE',  ( 0.0000000000000000000, 0.0000000000000000000, 1.000000000000000000 ) ) ;
#310 = DIRECTION ( 'NONE',  ( 1.000000000000000000, 0.0000000000000000000, 0.0000000000000000000 ) ) ;
#311 = UNCERTAINTY_MEASURE_WITH_UNIT (LENGTH_MEASURE( 1.000000000000000100E-005 ), #36, 'distance_accuracy_value', 'NONE');
#312 = FILL_AREA_STYLE_COLOUR ( '', #313 ) ;
#313 = COLOUR_RGB ( '',0.5019607843137254800, 0.5019607843137254800, 0.5019607843137254800 ) ;
#314 = APPLICATION_CONTEXT ( 'automotive_design' ) ;
#315 =( GEOMETRIC_REPRESENTATION_CONTEXT ( 3 ) GLOBAL_UNCERTAINTY_ASSIGNED_CONTEXT ( ( #311 ) ) GLOBAL_UNIT_ASSIGNED_CONTEXT ( ( #36, #143, #19 ) ) REPRESENTATION_CONTEXT ( 'NONE', 'WORKASPACE' ) );
#316 = ADVANCED_BREP_SHAPE_REPRESENTATION ( 'WDS-600-202', ( #121, #329 ), #315 ) ;
#317 = PRODUCT_DEFINITION_SHAPE ( 'NONE', 'NONE',  #321 ) ;
#318 = PRODUCT_RELATED_PRODUCT_CATEGORY ( 'part', '', ( #325 ) ) ;
#319 = PRODUCT_DEFINITION_FORMATION_WITH_SPECIFIED_SOURCE ( 'ANY', '', #325, .NOT_KNOWN. ) ;
#320 = SHAPE_DEFINITION_REPRESENTATION ( #317, #316 ) ;
#321 = PRODUCT_DEFINITION ( 'UNKNOWN', '', #319, #322 ) ;
#322 = PRODUCT_DEFINITION_CONTEXT ( 'detailed design', #324, 'design' ) ;
#323 = APPLICATION_PROTOCOL_DEFINITION ( 'draft international standard', 'automotive_design', 1998, #324 ) ;
#324 = APPLICATION_CONTEXT ( 'automotive_design' ) ;
#325 = PRODUCT ( 'WDS-600-202', 'WDS-600-202', '', ( #326 ) ) ;
#326 = PRODUCT_CONTEXT ( 'NONE', #314, 'mechanical' ) ;
#327 = APPLICATION_PROTOCOL_DEFINITION ( 'draft international standard', 'automotive_design', 1998, #314 ) ;
#328 = DIRECTION ( 'NONE',  ( 0.0000000000000000000, 0.0000000000000000000, 1.000000000000000000 ) ) ;
#329 = AXIS2_PLACEMENT_3D ( 'NONE', #331, #328, #330 ) ;
#330 = DIRECTION ( 'NONE',  ( 1.000000000000000000, 0.0000000000000000000, 0.0000000000000000000 ) ) ;
#331 = CARTESIAN_POINT ( 'NONE',  ( 0.0000000000000000000, 0.0000000000000000000, 0.0000000000000000000 ) ) ;
#332 =( GEOMETRIC_REPRESENTATION_CONTEXT ( 3 ) GLOBAL_UNCERTAINTY_ASSIGNED_CONTEXT ( ( #333 ) ) GLOBAL_UNIT_ASSIGNED_CONTEXT ( ( #336, #335, #334 ) ) REPRESENTATION_CONTEXT ( 'NONE', 'WORKASPACE' ) );
#333 = UNCERTAINTY_MEASURE_WITH_UNIT (LENGTH_MEASURE( 1.000000000000000100E-005 ), #336, 'distance_accuracy_value', 'NONE');
#334 =( NAMED_UNIT ( * ) SI_UNIT ( $, .STERADIAN. ) SOLID_ANGLE_UNIT ( ) );
#335 =( NAMED_UNIT ( * ) PLANE_ANGLE_UNIT ( ) SI_UNIT ( $, .RADIAN. ) );
#336 =( LENGTH_UNIT ( ) NAMED_UNIT ( * ) SI_UNIT ( .MILLI., .METRE. ) );
#337 = MECHANICAL_DESIGN_GEOMETRIC_PRESENTATION_REPRESENTATION (  '', ( #339 ), #332 ) ;
#338 = PRESENTATION_LAYER_ASSIGNMENT (  '', '', ( #339 ) ) ;
#339 = STYLED_ITEM ( 'NONE', ( #340 ), #316 ) ;
#340 = PRESENTATION_STYLE_ASSIGNMENT (( #341 ) ) ;
#341 = SURFACE_STYLE_USAGE ( .BOTH. , #342 ) ;
#342 = SURFACE_SIDE_STYLE ('',( #343 ) ) ;
#343 = SURFACE_STYLE_FILL_AREA ( #344 ) ;
#344 = FILL_AREA_STYLE ('',( #312 ) ) ;
ENDSEC;
END-ISO-10303-21;
