ISO-10303-21;
HEADER;
FILE_DESCRIPTION (( 'STEP AP203' ),
    '1' );
FILE_NAME ('WDS-600-2006.step',
    '2012-04-05T13:12:09',
    ( 'SysAdmin' ),
    ( 'SolidWorks' ),
    'SwSTEP 2.0',
    'SolidWorks 2012',
    '' );
FILE_SCHEMA (( 'CONFIG_CONTROL_DESIGN' ));
ENDSEC;

DATA;
#1 = DIRECTION ( 'NONE',  ( 0.0000000000000000000, 0.0000000000000000000, -1.000000000000000000 ) ) ;
#2 = DIRECTION ( 'NONE',  ( -1.000000000000000000, 0.0000000000000000000, 0.0000000000000000000 ) ) ;
#3 = CARTESIAN_POINT ( 'NONE',  ( 0.0000000000000000000, 0.0000000000000000000, -19.00000000000000000 ) ) ;
#4 = CALENDAR_DATE ( 2012, 5, 4 ) ;
#5 = LOCAL_TIME ( 9, 12, 9.000000000000000000, #6 ) ;
#6 = COORDINATED_UNIVERSAL_TIME_OFFSET ( 5, 0, .BEHIND. ) ;
#7 = APPROVAL_DATE_TIME ( #8, #263 ) ;
#8 = DATE_AND_TIME ( #4, #5 ) ;
#9 = DATE_AND_TIME ( #12, #10 ) ;
#10 = LOCAL_TIME ( 9, 12, 9.000000000000000000, #54 ) ;
#11 = CC_DESIGN_APPROVAL ( #263, ( #266 ) ) ;
#12 = CALENDAR_DATE ( 2012, 5, 4 ) ;
#13 = APPROVAL_DATE_TIME ( #9, #57 ) ;
#14 = CC_DESIGN_APPROVAL ( #57, ( #86 ) ) ;
#15 = ORIENTED_EDGE ( 'NONE', *, *, #18, .F. ) ;
#16 = EDGE_LOOP ( 'NONE', ( #35, #19 ) ) ;
#17 = EDGE_LOOP ( 'NONE', ( #32, #22 ) ) ;
#18 = EDGE_CURVE ( 'NONE', #102, #154, #50, .T. ) ;
#19 = ORIENTED_EDGE ( 'NONE', *, *, #82, .F. ) ;
#20 = ORIENTED_EDGE ( 'NONE', *, *, #18, .T. ) ;
#21 = EDGE_LOOP ( 'NONE', ( #39, #84 ) ) ;
#22 = ORIENTED_EDGE ( 'NONE', *, *, #147, .F. ) ;
#23 = EDGE_CURVE ( 'NONE', #152, #151, #53, .T. ) ;
#24 = ORIENTED_EDGE ( 'NONE', *, *, #156, .F. ) ;
#25 = ORIENTED_EDGE ( 'NONE', *, *, #61, .T. ) ;
#26 = ORIENTED_EDGE ( 'NONE', *, *, #23, .F. ) ;
#27 = ADVANCED_FACE ( 'NONE', ( #90 ), #97, .T. ) ;
#28 = ORIENTED_EDGE ( 'NONE', *, *, #106, .T. ) ;
#29 = ADVANCED_FACE ( 'NONE', ( #45, #217 ), #216, .T. ) ;
#30 = EDGE_CURVE ( 'NONE', #60, #95, #204, .T. ) ;
#31 = EDGE_CURVE ( 'NONE', #158, #157, #51, .T. ) ;
#32 = ORIENTED_EDGE ( 'NONE', *, *, #170, .F. ) ;
#33 = ADVANCED_FACE ( 'NONE', ( #218, #207 ), #206, .F. ) ;
#34 = ORIENTED_EDGE ( 'NONE', *, *, #31, .F. ) ;
#35 = ORIENTED_EDGE ( 'NONE', *, *, #79, .F. ) ;
#36 = EDGE_LOOP ( 'NONE', ( #38, #34 ) ) ;
#37 = EDGE_LOOP ( 'NONE', ( #41, #25 ) ) ;
#38 = ORIENTED_EDGE ( 'NONE', *, *, #93, .F. ) ;
#39 = ORIENTED_EDGE ( 'NONE', *, *, #30, .T. ) ;
#40 = ADVANCED_FACE ( 'NONE', ( #205, #219 ), #122, .T. ) ;
#41 = ORIENTED_EDGE ( 'NONE', *, *, #23, .T. ) ;
#42 = EDGE_LOOP ( 'NONE', ( #24, #26, #28, #15 ) ) ;
#43 = DIRECTION ( 'NONE',  ( 0.0000000000000000000, 0.0000000000000000000, -1.000000000000000000 ) ) ;
#44 = AXIS2_PLACEMENT_3D ( 'NONE', #52, #221, #220 ) ;
#45 = FACE_OUTER_BOUND ( 'NONE', #21, .T. ) ;
#46 = DIRECTION ( 'NONE',  ( 1.000000000000000000, 0.0000000000000000000, 0.0000000000000000000 ) ) ;
#47 = DIRECTION ( 'NONE',  ( 0.0000000000000000000, 0.0000000000000000000, -1.000000000000000000 ) ) ;
#48 = CARTESIAN_POINT ( 'NONE',  ( 0.0000000000000000000, 0.0000000000000000000, -0.5000000000000038900 ) ) ;
#49 = AXIS2_PLACEMENT_3D ( 'NONE', #48, #47, #46 ) ;
#50 = CIRCLE ( 'NONE', #49, 8.000000000000000000 ) ;
#51 = CIRCLE ( 'NONE', #212, 8.000000000000000000 ) ;
#52 = CARTESIAN_POINT ( 'NONE',  ( 0.0000000000000000000, 0.0000000000000000000, 0.0000000000000000000 ) ) ;
#53 = CIRCLE ( 'NONE', #44, 7.500000000000000000 ) ;
#54 = COORDINATED_UNIVERSAL_TIME_OFFSET ( 5, 0, .BEHIND. ) ;
#55 = APPROVAL_PERSON_ORGANIZATION ( #59, #57, #56 ) ;
#56 = APPROVAL_ROLE ( '' ) ;
#57 = APPROVAL ( #58, 'UNSPECIFIED' ) ;
#58 = APPROVAL_STATUS ( 'not_yet_approved' ) ;
#59 = PERSON_AND_ORGANIZATION ( #274, #273 ) ;
#60 = VERTEX_POINT ( 'NONE', #211 ) ;
#61 = EDGE_CURVE ( 'NONE', #151, #152, #126, .T. ) ;
#62 = ORIENTED_EDGE ( 'NONE', *, *, #147, .T. ) ;
#63 = EDGE_LOOP ( 'NONE', ( #96, #155, #105, #159 ) ) ;
#64 = EDGE_LOOP ( 'NONE', ( #100, #99, #62, #150 ) ) ;
#65 = VERTEX_POINT ( 'NONE', #127 ) ;
#66 = VERTEX_POINT ( 'NONE', #116 ) ;
#67 = CLOSED_SHELL ( 'NONE', ( #98, #153, #136, #143, #76, #70, #33, #40, #27, #29, #165 ) ) ;
#68 = EDGE_CURVE ( 'NONE', #146, #140, #128, .T. ) ;
#69 = ORIENTED_EDGE ( 'NONE', *, *, #91, .F. ) ;
#70 = ADVANCED_FACE ( 'NONE', ( #123 ), #115, .T. ) ;
#71 = EDGE_LOOP ( 'NONE', ( #69, #74, #75, #73 ) ) ;
#72 = EDGE_LOOP ( 'NONE', ( #83, #77, #171, #20 ) ) ;
#73 = ORIENTED_EDGE ( 'NONE', *, *, #79, .T. ) ;
#74 = ORIENTED_EDGE ( 'NONE', *, *, #68, .F. ) ;
#75 = ORIENTED_EDGE ( 'NONE', *, *, #78, .T. ) ;
#76 = ADVANCED_FACE ( 'NONE', ( #194 ), #114, .F. ) ;
#77 = ORIENTED_EDGE ( 'NONE', *, *, #31, .T. ) ;
#78 = EDGE_CURVE ( 'NONE', #146, #80, #193, .T. ) ;
#79 = EDGE_CURVE ( 'NONE', #80, #203, #192, .T. ) ;
#80 = VERTEX_POINT ( 'NONE', #180 ) ;
#81 = ORIENTED_EDGE ( 'NONE', *, *, #78, .F. ) ;
#82 = EDGE_CURVE ( 'NONE', #203, #80, #173, .T. ) ;
#83 = ORIENTED_EDGE ( 'NONE', *, *, #139, .F. ) ;
#84 = ORIENTED_EDGE ( 'NONE', *, *, #94, .T. ) ;
#85 = ORIENTED_EDGE ( 'NONE', *, *, #82, .T. ) ;
#86 = PRODUCT_DEFINITION_FORMATION_WITH_SPECIFIED_SOURCE ( 'ANY', '', #275, .NOT_KNOWN. ) ;
#87 = CC_DESIGN_DATE_AND_TIME_ASSIGNMENT ( #174, #88, ( #266 ) ) ;
#88 = DATE_TIME_ROLE ( 'creation_date' ) ;
#89 = AXIS2_PLACEMENT_3D ( 'NONE', #162, #43, #213 ) ;
#90 = FACE_OUTER_BOUND ( 'NONE', #42, .T. ) ;
#91 = EDGE_CURVE ( 'NONE', #140, #203, #247, .T. ) ;
#92 = MANIFOLD_SOLID_BREP ( 'Cut-Extrude3', #67 ) ;
#93 = EDGE_CURVE ( 'NONE', #157, #158, #299, .T. ) ;
#94 = EDGE_CURVE ( 'NONE', #95, #60, #332, .T. ) ;
#95 = VERTEX_POINT ( 'NONE', #310 ) ;
#96 = ORIENTED_EDGE ( 'NONE', *, *, #61, .F. ) ;
#97 = CONICAL_SURFACE ( 'NONE', #89, 7.500000000000000000, 0.7853981633974447300 ) ;
#98 = ADVANCED_FACE ( 'NONE', ( #311 ), #307, .F. ) ;
#99 = ORIENTED_EDGE ( 'NONE', *, *, #101, .T. ) ;
#100 = ORIENTED_EDGE ( 'NONE', *, *, #94, .F. ) ;
#101 = EDGE_CURVE ( 'NONE', #95, #66, #330, .T. ) ;
#102 = VERTEX_POINT ( 'NONE', #331 ) ;
#103 = EDGE_CURVE ( 'NONE', #154, #102, #300, .T. ) ;
#104 = EDGE_LOOP ( 'NONE', ( #144, #201, #85, #81 ) ) ;
#105 = ORIENTED_EDGE ( 'NONE', *, *, #103, .F. ) ;
#106 = EDGE_CURVE ( 'NONE', #152, #154, #320, .T. ) ;
#107 = EDGE_CURVE ( 'NONE', #157, #102, #316, .T. ) ;
#108 = AXIS2_PLACEMENT_3D ( 'NONE', #196, #195, #191 ) ;
#109 = CARTESIAN_POINT ( 'NONE',  ( 0.0000000000000000000, 0.0000000000000000000, -5.500000000000000000 ) ) ;
#110 = DIRECTION ( 'NONE',  ( 1.000000000000000000, 0.0000000000000000000, 0.0000000000000000000 ) ) ;
#111 = DIRECTION ( 'NONE',  ( 0.0000000000000000000, 0.0000000000000000000, 1.000000000000000000 ) ) ;
#112 = CARTESIAN_POINT ( 'NONE',  ( 0.0000000000000000000, 0.0000000000000000000, 0.0000000000000000000 ) ) ;
#113 = AXIS2_PLACEMENT_3D ( 'NONE', #112, #111, #110 ) ;
#114 = CYLINDRICAL_SURFACE ( 'NONE', #197, 2.649999999999999900 ) ;
#115 = CYLINDRICAL_SURFACE ( 'NONE', #108, 8.000000000000000000 ) ;
#116 = CARTESIAN_POINT ( 'NONE',  ( -4.750000000000000000, 5.817072295949927400E-016, 0.0000000000000000000 ) ) ;
#117 = AXIS2_PLACEMENT_3D ( 'NONE', #109, #199, #198 ) ;
#118 = DIRECTION ( 'NONE',  ( 1.000000000000000000, 0.0000000000000000000, -0.0000000000000000000 ) ) ;
#119 = DIRECTION ( 'NONE',  ( 0.0000000000000000000, 0.0000000000000000000, 1.000000000000000000 ) ) ;
#120 = CARTESIAN_POINT ( 'NONE',  ( 0.0000000000000000000, 0.0000000000000000000, 0.0000000000000000000 ) ) ;
#121 = AXIS2_PLACEMENT_3D ( 'NONE', #120, #119, #118 ) ;
#122 = PLANE ( 'NONE',  #121 ) ;
#123 = FACE_OUTER_BOUND ( 'NONE', #72, .T. ) ;
#124 = DIRECTION ( 'NONE',  ( 1.000000000000000000, 0.0000000000000000000, -0.0000000000000000000 ) ) ;
#125 = DIRECTION ( 'NONE',  ( 0.0000000000000000000, 0.0000000000000000000, 1.000000000000000000 ) ) ;
#126 = CIRCLE ( 'NONE', #113, 7.500000000000000000 ) ;
#127 = CARTESIAN_POINT ( 'NONE',  ( 4.750000000000000000, 0.0000000000000000000, 0.0000000000000000000 ) ) ;
#128 = CIRCLE ( 'NONE', #117, 2.649999999999999900 ) ;
#129 = DIRECTION ( 'NONE',  ( 1.000000000000000000, 0.0000000000000000000, 0.0000000000000000000 ) ) ;
#130 = DIRECTION ( 'NONE',  ( 0.0000000000000000000, 0.0000000000000000000, 1.000000000000000000 ) ) ;
#131 = CARTESIAN_POINT ( 'NONE',  ( 0.0000000000000000000, 0.0000000000000000000, -19.00000000000000000 ) ) ;
#132 = CARTESIAN_POINT ( 'NONE',  ( 0.0000000000000000000, 0.0000000000000000000, -19.00000000000000000 ) ) ;
#133 = DIRECTION ( 'NONE',  ( 1.000000000000000000, 0.0000000000000000000, 0.0000000000000000000 ) ) ;
#134 = DIRECTION ( 'NONE',  ( 0.0000000000000000000, 0.0000000000000000000, 1.000000000000000000 ) ) ;
#135 = CARTESIAN_POINT ( 'NONE',  ( 0.0000000000000000000, 0.0000000000000000000, -5.500000000000000000 ) ) ;
#136 = ADVANCED_FACE ( 'NONE', ( #246 ), #301, .T. ) ;
#137 = ORIENTED_EDGE ( 'NONE', *, *, #139, .T. ) ;
#138 = ORIENTED_EDGE ( 'NONE', *, *, #93, .T. ) ;
#139 = EDGE_CURVE ( 'NONE', #158, #154, #237, .T. ) ;
#140 = VERTEX_POINT ( 'NONE', #242 ) ;
#141 = ORIENTED_EDGE ( 'NONE', *, *, #103, .T. ) ;
#142 = ORIENTED_EDGE ( 'NONE', *, *, #107, .F. ) ;
#143 = ADVANCED_FACE ( 'NONE', ( #321 ), #244, .F. ) ;
#144 = ORIENTED_EDGE ( 'NONE', *, *, #145, .F. ) ;
#145 = EDGE_CURVE ( 'NONE', #140, #146, #238, .T. ) ;
#146 = VERTEX_POINT ( 'NONE', #323 ) ;
#147 = EDGE_CURVE ( 'NONE', #66, #65, #346, .T. ) ;
#148 = EDGE_LOOP ( 'NONE', ( #138, #137, #141, #142 ) ) ;
#149 = EDGE_CURVE ( 'NONE', #60, #65, #342, .T. ) ;
#150 = ORIENTED_EDGE ( 'NONE', *, *, #149, .F. ) ;
#151 = VERTEX_POINT ( 'NONE', #338 ) ;
#152 = VERTEX_POINT ( 'NONE', #337 ) ;
#153 = ADVANCED_FACE ( 'NONE', ( #223 ), #241, .T. ) ;
#154 = VERTEX_POINT ( 'NONE', #224 ) ;
#155 = ORIENTED_EDGE ( 'NONE', *, *, #156, .T. ) ;
#156 = EDGE_CURVE ( 'NONE', #151, #102, #254, .T. ) ;
#157 = VERTEX_POINT ( 'NONE', #251 ) ;
#158 = VERTEX_POINT ( 'NONE', #256 ) ;
#159 = ORIENTED_EDGE ( 'NONE', *, *, #106, .F. ) ;
#160 = ORIENTED_EDGE ( 'NONE', *, *, #68, .T. ) ;
#161 = ORIENTED_EDGE ( 'NONE', *, *, #145, .T. ) ;
#162 = CARTESIAN_POINT ( 'NONE',  ( 0.0000000000000000000, 0.0000000000000000000, 0.0000000000000000000 ) ) ;
#163 = AXIS2_PLACEMENT_3D ( 'NONE', #210, #209, #208 ) ;
#164 = ORIENTED_EDGE ( 'NONE', *, *, #30, .F. ) ;
#165 = ADVANCED_FACE ( 'NONE', ( #257 ), #289, .F. ) ;
#166 = ORIENTED_EDGE ( 'NONE', *, *, #149, .T. ) ;
#167 = ORIENTED_EDGE ( 'NONE', *, *, #170, .T. ) ;
#168 = ORIENTED_EDGE ( 'NONE', *, *, #101, .F. ) ;
#169 = EDGE_LOOP ( 'NONE', ( #168, #164, #166, #167 ) ) ;
#170 = EDGE_CURVE ( 'NONE', #65, #66, #288, .T. ) ;
#171 = ORIENTED_EDGE ( 'NONE', *, *, #107, .T. ) ;
#172 = COORDINATED_UNIVERSAL_TIME_OFFSET ( 5, 0, .BEHIND. ) ;
#173 = CIRCLE ( 'NONE', #190, 2.649999999999999900 ) ;
#174 = DATE_AND_TIME ( #179, #185 ) ;
#175 = DIRECTION ( 'NONE',  ( -1.000000000000000000, 0.0000000000000000000, 0.0000000000000000000 ) ) ;
#176 = DIRECTION ( 'NONE',  ( 0.0000000000000000000, 0.0000000000000000000, -1.000000000000000000 ) ) ;
#177 = CARTESIAN_POINT ( 'NONE',  ( 0.0000000000000000000, 0.0000000000000000000, -19.00000000000000000 ) ) ;
#178 = AXIS2_PLACEMENT_3D ( 'NONE', #177, #176, #175 ) ;
#179 = CALENDAR_DATE ( 2012, 5, 4 ) ;
#180 = CARTESIAN_POINT ( 'NONE',  ( -2.649999999999999900, 0.0000000000000000000, -19.00000000000000000 ) ) ;
#181 = PERSON_AND_ORGANIZATION ( #274, #273 ) ;
#182 = DIRECTION ( 'NONE',  ( -0.0000000000000000000, -0.0000000000000000000, -1.000000000000000000 ) ) ;
#183 = VECTOR ( 'NONE', #182, 1000.000000000000000 ) ;
#184 = CARTESIAN_POINT ( 'NONE',  ( -2.649999999999999900, 0.0000000000000000000, 0.001000000000001000100 ) ) ;
#185 = LOCAL_TIME ( 9, 12, 9.000000000000000000, #172 ) ;
#186 = DIRECTION ( 'NONE',  ( -1.000000000000000000, 0.0000000000000000000, 0.0000000000000000000 ) ) ;
#187 = DIRECTION ( 'NONE',  ( -0.0000000000000000000, -0.0000000000000000000, -1.000000000000000000 ) ) ;
#188 = CARTESIAN_POINT ( 'NONE',  ( 0.0000000000000000000, 0.0000000000000000000, 0.001000000000001000100 ) ) ;
#189 = PERSON_AND_ORGANIZATION_ROLE ( 'creator' ) ;
#190 = AXIS2_PLACEMENT_3D ( 'NONE', #3, #1, #2 ) ;
#191 = DIRECTION ( 'NONE',  ( 1.000000000000000000, 0.0000000000000000000, 0.0000000000000000000 ) ) ;
#192 = CIRCLE ( 'NONE', #178, 2.649999999999999900 ) ;
#193 = LINE ( 'NONE', #184, #183 ) ;
#194 = FACE_OUTER_BOUND ( 'NONE', #71, .T. ) ;
#195 = DIRECTION ( 'NONE',  ( 0.0000000000000000000, 0.0000000000000000000, 1.000000000000000000 ) ) ;
#196 = CARTESIAN_POINT ( 'NONE',  ( 0.0000000000000000000, 0.0000000000000000000, -19.00000000000000000 ) ) ;
#197 = AXIS2_PLACEMENT_3D ( 'NONE', #188, #187, #186 ) ;
#198 = DIRECTION ( 'NONE',  ( 1.000000000000000000, 0.0000000000000000000, 0.0000000000000000000 ) ) ;
#199 = DIRECTION ( 'NONE',  ( -0.0000000000000000000, -0.0000000000000000000, -1.000000000000000000 ) ) ;
#200 = CC_DESIGN_PERSON_AND_ORGANIZATION_ASSIGNMENT ( #181, #189, ( #266 ) ) ;
#201 = ORIENTED_EDGE ( 'NONE', *, *, #91, .T. ) ;
#202 = EDGE_LOOP ( 'NONE', ( #160, #161 ) ) ;
#203 = VERTEX_POINT ( 'NONE', #290 ) ;
#204 = CIRCLE ( 'NONE', #215, 4.750000000000000000 ) ;
#205 = FACE_BOUND ( 'NONE', #17, .T. ) ;
#206 = PLANE ( 'NONE',  #214 ) ;
#207 = FACE_OUTER_BOUND ( 'NONE', #36, .T. ) ;
#208 = DIRECTION ( 'NONE',  ( 1.000000000000000000, 0.0000000000000000000, -0.0000000000000000000 ) ) ;
#209 = DIRECTION ( 'NONE',  ( 0.0000000000000000000, 0.0000000000000000000, 1.000000000000000000 ) ) ;
#210 = CARTESIAN_POINT ( 'NONE',  ( 0.0000000000000000000, 0.0000000000000000000, -5.500000000000000000 ) ) ;
#211 = CARTESIAN_POINT ( 'NONE',  ( 4.750000000000000000, 0.0000000000000000000, -5.500000000000000000 ) ) ;
#212 = AXIS2_PLACEMENT_3D ( 'NONE', #131, #130, #129 ) ;
#213 = DIRECTION ( 'NONE',  ( -1.000000000000000000, 0.0000000000000000000, 0.0000000000000000000 ) ) ;
#214 = AXIS2_PLACEMENT_3D ( 'NONE', #132, #125, #124 ) ;
#215 = AXIS2_PLACEMENT_3D ( 'NONE', #135, #134, #133 ) ;
#216 = PLANE ( 'NONE',  #163 ) ;
#217 = FACE_BOUND ( 'NONE', #202, .T. ) ;
#218 = FACE_BOUND ( 'NONE', #16, .T. ) ;
#219 = FACE_OUTER_BOUND ( 'NONE', #37, .T. ) ;
#220 = DIRECTION ( 'NONE',  ( 1.000000000000000000, 0.0000000000000000000, 0.0000000000000000000 ) ) ;
#221 = DIRECTION ( 'NONE',  ( 0.0000000000000000000, 0.0000000000000000000, 1.000000000000000000 ) ) ;
#222 = VECTOR ( 'NONE', #306, 1000.000000000000000 ) ;
#223 = FACE_OUTER_BOUND ( 'NONE', #63, .T. ) ;
#224 = CARTESIAN_POINT ( 'NONE',  ( -8.000000000000000000, 9.797174393178825700E-016, -0.5000000000000038900 ) ) ;
#225 = DIRECTION ( 'NONE',  ( 1.000000000000000000, 0.0000000000000000000, 0.0000000000000000000 ) ) ;
#226 = DIRECTION ( 'NONE',  ( -0.0000000000000000000, -0.0000000000000000000, -1.000000000000000000 ) ) ;
#227 = CARTESIAN_POINT ( 'NONE',  ( 0.0000000000000000000, 0.0000000000000000000, -5.500000000000000000 ) ) ;
#228 = AXIS2_PLACEMENT_3D ( 'NONE', #227, #226, #225 ) ;
#229 = DIRECTION ( 'NONE',  ( -1.000000000000000000, 0.0000000000000000000, 0.0000000000000000000 ) ) ;
#230 = CARTESIAN_POINT ( 'NONE',  ( 0.0000000000000000000, 0.0000000000000000000, 0.0000000000000000000 ) ) ;
#231 = DIRECTION ( 'NONE',  ( -0.0000000000000000000, -0.0000000000000000000, -1.000000000000000000 ) ) ;
#232 = DIRECTION ( 'NONE',  ( 1.000000000000000000, 0.0000000000000000000, 0.0000000000000000000 ) ) ;
#233 = AXIS2_PLACEMENT_3D ( 'NONE', #345, #344, #343 ) ;
#234 = DIRECTION ( 'NONE',  ( 0.0000000000000000000, 0.0000000000000000000, 1.000000000000000000 ) ) ;
#235 = VECTOR ( 'NONE', #234, 1000.000000000000000 ) ;
#236 = CARTESIAN_POINT ( 'NONE',  ( -8.000000000000000000, 9.797174393178825700E-016, -19.00000000000000000 ) ) ;
#237 = LINE ( 'NONE', #236, #235 ) ;
#238 = CIRCLE ( 'NONE', #228, 2.649999999999999900 ) ;
#239 = DIRECTION ( 'NONE',  ( 1.000000000000000000, 0.0000000000000000000, 0.0000000000000000000 ) ) ;
#240 = DIRECTION ( 'NONE',  ( 0.0000000000000000000, 0.0000000000000000000, 1.000000000000000000 ) ) ;
#241 = CONICAL_SURFACE ( 'NONE', #347, 7.500000000000000000, 0.7853981633974447300 ) ;
#242 = CARTESIAN_POINT ( 'NONE',  ( 2.649999999999999900, 3.245314017740486000E-016, -5.500000000000000000 ) ) ;
#243 = CARTESIAN_POINT ( 'NONE',  ( 0.0000000000000000000, 0.0000000000000000000, -19.00000000000000000 ) ) ;
#244 = CYLINDRICAL_SURFACE ( 'NONE', #302, 2.649999999999999900 ) ;
#245 = AXIS2_PLACEMENT_3D ( 'NONE', #243, #240, #239 ) ;
#246 = FACE_OUTER_BOUND ( 'NONE', #148, .T. ) ;
#247 = LINE ( 'NONE', #309, #222 ) ;
#248 = DIRECTION ( 'NONE',  ( 0.7071067811865451300, 8.659560562354903300E-017, -0.7071067811865500200 ) ) ;
#249 = VECTOR ( 'NONE', #248, 1000.000000000000100 ) ;
#250 = CARTESIAN_POINT ( 'NONE',  ( 7.500000000000000000, 9.184850993605147900E-016, 0.0000000000000000000 ) ) ;
#251 = CARTESIAN_POINT ( 'NONE',  ( 8.000000000000000000, 0.0000000000000000000, -19.00000000000000000 ) ) ;
#252 = CARTESIAN_POINT ( 'NONE',  ( 0.0000000000000000000, 0.0000000000000000000, -5.500000000000000000 ) ) ;
#253 = DIRECTION ( 'NONE',  ( -1.000000000000000000, 0.0000000000000000000, 0.0000000000000000000 ) ) ;
#254 = LINE ( 'NONE', #250, #249 ) ;
#255 = AXIS2_PLACEMENT_3D ( 'NONE', #252, #291, #232 ) ;
#256 = CARTESIAN_POINT ( 'NONE',  ( -8.000000000000000000, 9.797174393178825700E-016, -19.00000000000000000 ) ) ;
#257 = FACE_OUTER_BOUND ( 'NONE', #169, .T. ) ;
#258 = DIRECTION ( 'NONE',  ( 0.0000000000000000000, 0.0000000000000000000, -1.000000000000000000 ) ) ;
#259 = AXIS2_PLACEMENT_3D ( 'NONE', #335, #305, #304 ) ;
#260 = AXIS2_PLACEMENT_3D ( 'NONE', #334, #303, #333 ) ;
#261 = APPROVAL_PERSON_ORGANIZATION ( #265, #263, #262 ) ;
#262 = APPROVAL_ROLE ( '' ) ;
#263 = APPROVAL ( #264, 'UNSPECIFIED' ) ;
#264 = APPROVAL_STATUS ( 'not_yet_approved' ) ;
#265 = PERSON_AND_ORGANIZATION ( #274, #273 ) ;
#266 = PRODUCT_DEFINITION ( 'UNKNOWN', '', #86, #267 ) ;
#267 = DESIGN_CONTEXT ( 'detailed design', #269, 'design' ) ;
#268 = APPLICATION_PROTOCOL_DEFINITION ( 'international standard', 'config_control_design', 1994, #269 ) ;
#269 = APPLICATION_CONTEXT ( 'configuration controlled 3d designs of mechanical parts and assemblies' ) ;
#270 = CC_DESIGN_PERSON_AND_ORGANIZATION_ASSIGNMENT ( #272, #271, ( #275 ) ) ;
#271 = PERSON_AND_ORGANIZATION_ROLE ( 'design_owner' ) ;
#272 = PERSON_AND_ORGANIZATION ( #274, #273 ) ;
#273 = ORGANIZATION ( 'UNSPECIFIED', 'UNSPECIFIED', '' ) ;
#274 = PERSON ( 'UNSPECIFIED', 'UNSPECIFIED', 'UNSPECIFIED', ('UNSPECIFIED'), ('UNSPECIFIED'), ('UNSPECIFIED') ) ;
#275 = PRODUCT ( 'WDS-600-2006', 'WDS-600-2006', '', ( #276 ) ) ;
#276 = MECHANICAL_CONTEXT ( 'NONE', #292, 'mechanical' ) ;
#277 = APPLICATION_PROTOCOL_DEFINITION ( 'international standard', 'config_control_design', 1994, #292 ) ;
#278 =( GEOMETRIC_REPRESENTATION_CONTEXT ( 3 ) GLOBAL_UNCERTAINTY_ASSIGNED_CONTEXT ( ( #279 ) ) GLOBAL_UNIT_ASSIGNED_CONTEXT ( ( #282, #281, #280 ) ) REPRESENTATION_CONTEXT ( 'NONE', 'WORKASPACE' ) );
#279 = UNCERTAINTY_MEASURE_WITH_UNIT (LENGTH_MEASURE( 1.000000000000000100E-005 ), #282, 'distance_accuracy_value', 'NONE');
#280 =( NAMED_UNIT ( * ) SI_UNIT ( $, .STERADIAN. ) SOLID_ANGLE_UNIT ( ) );
#281 =( NAMED_UNIT ( * ) PLANE_ANGLE_UNIT ( ) SI_UNIT ( $, .RADIAN. ) );
#282 =( LENGTH_UNIT ( ) NAMED_UNIT ( * ) SI_UNIT ( .MILLI., .METRE. ) );
#283 = DIRECTION ( 'NONE',  ( 1.000000000000000000, 0.0000000000000000000, 0.0000000000000000000 ) ) ;
#284 = DIRECTION ( 'NONE',  ( 0.0000000000000000000, 0.0000000000000000000, 1.000000000000000000 ) ) ;
#285 = CARTESIAN_POINT ( 'NONE',  ( 0.0000000000000000000, 0.0000000000000000000, 0.0000000000000000000 ) ) ;
#286 = AXIS2_PLACEMENT_3D ( 'NONE', #285, #284, #283 ) ;
#287 = AXIS2_PLACEMENT_3D ( 'NONE', #294, #293, #295 ) ;
#288 = CIRCLE ( 'NONE', #286, 4.750000000000000000 ) ;
#289 = CYLINDRICAL_SURFACE ( 'NONE', #255, 4.750000000000000000 ) ;
#290 = CARTESIAN_POINT ( 'NONE',  ( 2.649999999999999900, 3.245314017740486000E-016, -19.00000000000000000 ) ) ;
#291 = DIRECTION ( 'NONE',  ( -0.0000000000000000000, -0.0000000000000000000, 1.000000000000000000 ) ) ;
#292 = APPLICATION_CONTEXT ( 'configuration controlled 3d designs of mechanical parts and assemblies' ) ;
#293 = DIRECTION ( 'NONE',  ( 0.0000000000000000000, 0.0000000000000000000, 1.000000000000000000 ) ) ;
#294 = CARTESIAN_POINT ( 'NONE',  ( 0.0000000000000000000, 0.0000000000000000000, 0.0000000000000000000 ) ) ;
#295 = DIRECTION ( 'NONE',  ( 1.000000000000000000, 0.0000000000000000000, 0.0000000000000000000 ) ) ;
#296 = ADVANCED_BREP_SHAPE_REPRESENTATION ( 'WDS-600-2006', ( #92, #287 ), #278 ) ;
#297 = DIRECTION ( 'NONE',  ( 0.0000000000000000000, 0.0000000000000000000, 1.000000000000000000 ) ) ;
#298 = CARTESIAN_POINT ( 'NONE',  ( 0.0000000000000000000, 0.0000000000000000000, -19.00000000000000000 ) ) ;
#299 = CIRCLE ( 'NONE', #312, 8.000000000000000000 ) ;
#300 = CIRCLE ( 'NONE', #308, 8.000000000000000000 ) ;
#301 = CYLINDRICAL_SURFACE ( 'NONE', #245, 8.000000000000000000 ) ;
#302 = AXIS2_PLACEMENT_3D ( 'NONE', #322, #231, #229 ) ;
#303 = DIRECTION ( 'NONE',  ( -0.0000000000000000000, -0.0000000000000000000, 1.000000000000000000 ) ) ;
#304 = DIRECTION ( 'NONE',  ( 1.000000000000000000, 0.0000000000000000000, 0.0000000000000000000 ) ) ;
#305 = DIRECTION ( 'NONE',  ( 0.0000000000000000000, 0.0000000000000000000, 1.000000000000000000 ) ) ;
#306 = DIRECTION ( 'NONE',  ( -0.0000000000000000000, -0.0000000000000000000, -1.000000000000000000 ) ) ;
#307 = CYLINDRICAL_SURFACE ( 'NONE', #260, 4.750000000000000000 ) ;
#308 = AXIS2_PLACEMENT_3D ( 'NONE', #326, #325, #324 ) ;
#309 = CARTESIAN_POINT ( 'NONE',  ( 2.649999999999999900, 3.245314017740486000E-016, 0.001000000000001000100 ) ) ;
#310 = CARTESIAN_POINT ( 'NONE',  ( -4.750000000000000000, 5.817072295949927400E-016, -5.500000000000000000 ) ) ;
#311 = FACE_OUTER_BOUND ( 'NONE', #64, .T. ) ;
#312 = AXIS2_PLACEMENT_3D ( 'NONE', #298, #297, #336 ) ;
#313 = DIRECTION ( 'NONE',  ( 0.0000000000000000000, 0.0000000000000000000, 1.000000000000000000 ) ) ;
#314 = VECTOR ( 'NONE', #313, 1000.000000000000000 ) ;
#315 = CARTESIAN_POINT ( 'NONE',  ( 8.000000000000000000, 0.0000000000000000000, -19.00000000000000000 ) ) ;
#316 = LINE ( 'NONE', #315, #314 ) ;
#317 = DIRECTION ( 'NONE',  ( -0.7071067811865451300, 0.0000000000000000000, -0.7071067811865500200 ) ) ;
#318 = VECTOR ( 'NONE', #317, 1000.000000000000100 ) ;
#319 = CARTESIAN_POINT ( 'NONE',  ( -7.500000000000000000, 0.0000000000000000000, 0.0000000000000000000 ) ) ;
#320 = LINE ( 'NONE', #319, #318 ) ;
#321 = FACE_OUTER_BOUND ( 'NONE', #104, .T. ) ;
#322 = CARTESIAN_POINT ( 'NONE',  ( 0.0000000000000000000, 0.0000000000000000000, 0.001000000000001000100 ) ) ;
#323 = CARTESIAN_POINT ( 'NONE',  ( -2.649999999999999900, 0.0000000000000000000, -5.500000000000000000 ) ) ;
#324 = DIRECTION ( 'NONE',  ( 1.000000000000000000, 0.0000000000000000000, 0.0000000000000000000 ) ) ;
#325 = DIRECTION ( 'NONE',  ( 0.0000000000000000000, 0.0000000000000000000, -1.000000000000000000 ) ) ;
#326 = CARTESIAN_POINT ( 'NONE',  ( 0.0000000000000000000, 0.0000000000000000000, -0.5000000000000038900 ) ) ;
#327 = DIRECTION ( 'NONE',  ( -0.0000000000000000000, -0.0000000000000000000, 1.000000000000000000 ) ) ;
#328 = VECTOR ( 'NONE', #327, 1000.000000000000000 ) ;
#329 = CARTESIAN_POINT ( 'NONE',  ( -4.750000000000000000, 5.817072295949927400E-016, -5.500000000000000000 ) ) ;
#330 = LINE ( 'NONE', #329, #328 ) ;
#331 = CARTESIAN_POINT ( 'NONE',  ( 8.000000000000000000, 0.0000000000000000000, -0.5000000000000038900 ) ) ;
#332 = CIRCLE ( 'NONE', #259, 4.750000000000000000 ) ;
#333 = DIRECTION ( 'NONE',  ( 1.000000000000000000, 0.0000000000000000000, 0.0000000000000000000 ) ) ;
#334 = CARTESIAN_POINT ( 'NONE',  ( 0.0000000000000000000, 0.0000000000000000000, -5.500000000000000000 ) ) ;
#335 = CARTESIAN_POINT ( 'NONE',  ( 0.0000000000000000000, 0.0000000000000000000, -5.500000000000000000 ) ) ;
#336 = DIRECTION ( 'NONE',  ( 1.000000000000000000, 0.0000000000000000000, 0.0000000000000000000 ) ) ;
#337 = CARTESIAN_POINT ( 'NONE',  ( -7.500000000000000000, 0.0000000000000000000, 0.0000000000000000000 ) ) ;
#338 = CARTESIAN_POINT ( 'NONE',  ( 7.500000000000000000, 9.491012693391985800E-016, 0.0000000000000000000 ) ) ;
#339 = DIRECTION ( 'NONE',  ( -0.0000000000000000000, -0.0000000000000000000, 1.000000000000000000 ) ) ;
#340 = VECTOR ( 'NONE', #339, 1000.000000000000000 ) ;
#341 = CARTESIAN_POINT ( 'NONE',  ( 4.750000000000000000, 0.0000000000000000000, -5.500000000000000000 ) ) ;
#342 = LINE ( 'NONE', #341, #340 ) ;
#343 = DIRECTION ( 'NONE',  ( 1.000000000000000000, 0.0000000000000000000, 0.0000000000000000000 ) ) ;
#344 = DIRECTION ( 'NONE',  ( 0.0000000000000000000, 0.0000000000000000000, 1.000000000000000000 ) ) ;
#345 = CARTESIAN_POINT ( 'NONE',  ( 0.0000000000000000000, 0.0000000000000000000, 0.0000000000000000000 ) ) ;
#346 = CIRCLE ( 'NONE', #233, 4.750000000000000000 ) ;
#347 = AXIS2_PLACEMENT_3D ( 'NONE', #230, #258, #253 ) ;
#348 = PERSON_AND_ORGANIZATION ( #274, #273 ) ;
#349 = CC_DESIGN_PERSON_AND_ORGANIZATION_ASSIGNMENT ( #348, #350, ( #86 ) ) ;
#350 = PERSON_AND_ORGANIZATION_ROLE ( 'creator' ) ;
#351 = COORDINATED_UNIVERSAL_TIME_OFFSET ( 5, 0, .BEHIND. ) ;
#352 = CC_DESIGN_PERSON_AND_ORGANIZATION_ASSIGNMENT ( #354, #353, ( #378 ) ) ;
#353 = PERSON_AND_ORGANIZATION_ROLE ( 'classification_officer' ) ;
#354 = PERSON_AND_ORGANIZATION ( #274, #273 ) ;
#355 = CC_DESIGN_DATE_AND_TIME_ASSIGNMENT ( #357, #356, ( #378 ) ) ;
#356 = DATE_TIME_ROLE ( 'classification_date' ) ;
#357 = DATE_AND_TIME ( #358, #359 ) ;
#358 = CALENDAR_DATE ( 2012, 5, 4 ) ;
#359 = LOCAL_TIME ( 9, 12, 9.000000000000000000, #351 ) ;
#360 = PERSON_AND_ORGANIZATION_ROLE ( 'design_supplier' ) ;
#361 = CC_DESIGN_SECURITY_CLASSIFICATION ( #378, ( #86 ) ) ;
#362 = CC_DESIGN_APPROVAL ( #373, ( #378 ) ) ;
#363 = APPROVAL_DATE_TIME ( #364, #373 ) ;
#364 = DATE_AND_TIME ( #365, #366 ) ;
#365 = CALENDAR_DATE ( 2012, 5, 4 ) ;
#366 = LOCAL_TIME ( 9, 12, 9.000000000000000000, #370 ) ;
#367 = SECURITY_CLASSIFICATION_LEVEL ( 'unclassified' ) ;
#368 = PRODUCT_DEFINITION_SHAPE ( 'NONE', 'NONE',  #266 ) ;
#369 = PERSON_AND_ORGANIZATION ( #274, #273 ) ;
#370 = COORDINATED_UNIVERSAL_TIME_OFFSET ( 5, 0, .BEHIND. ) ;
#371 = APPROVAL_PERSON_ORGANIZATION ( #375, #373, #372 ) ;
#372 = APPROVAL_ROLE ( '' ) ;
#373 = APPROVAL ( #374, 'UNSPECIFIED' ) ;
#374 = APPROVAL_STATUS ( 'not_yet_approved' ) ;
#375 = PERSON_AND_ORGANIZATION ( #274, #273 ) ;
#376 = SHAPE_DEFINITION_REPRESENTATION ( #368, #296 ) ;
#377 = PRODUCT_RELATED_PRODUCT_CATEGORY ( 'detail', '', ( #275 ) ) ;
#378 = SECURITY_CLASSIFICATION ( '', '', #367 ) ;
#379 = CC_DESIGN_PERSON_AND_ORGANIZATION_ASSIGNMENT ( #369, #360, ( #86 ) ) ;
ENDSEC;
END-ISO-10303-21;
