ISO-10303-21;
HEADER;
FILE_DESCRIPTION (( 'STEP AP214' ),
    '1' );
FILE_NAME ('60600-2030540121768.step',
    '2009-03-05T09:00:19',
    ( 'SysAdmin' ),
    ( 'SolidWorks' ),
    'SwSTEP 2.0',
    'SolidWorks 2009',
    '' );
FILE_SCHEMA (( 'AUTOMOTIVE_DESIGN' ));
ENDSEC;

DATA;
#1 = EDGE_LOOP ( 'NONE', ( #2, #85 ) ) ;
#2 = ORIENTED_EDGE ( 'NONE', *, *, #3, .T. ) ;
#3 = EDGE_CURVE ( 'NONE', #65, #64, #159, .T. ) ;
#4 = ORIENTED_EDGE ( 'NONE', *, *, #5, .F. ) ;
#5 = EDGE_CURVE ( 'NONE', #194, #68, #122, .T. ) ;
#6 = ORIENTED_EDGE ( 'NONE', *, *, #7, .T. ) ;
#7 = EDGE_CURVE ( 'NONE', #130, #217, #204, .T. ) ;
#8 = ORIENTED_EDGE ( 'NONE', *, *, #9, .T. ) ;
#9 = EDGE_CURVE ( 'NONE', #41, #40, #126, .T. ) ;
#10 = ORIENTED_EDGE ( 'NONE', *, *, #47, .T. ) ;
#11 = ORIENTED_EDGE ( 'NONE', *, *, #43, .F. ) ;
#12 = ADVANCED_FACE ( 'NONE', ( #165, #164 ), #163, .T. ) ;
#13 = EDGE_LOOP ( 'NONE', ( #14, #15, #25, #26 ) ) ;
#14 = ORIENTED_EDGE ( 'NONE', *, *, #267, .F. ) ;
#15 = ORIENTED_EDGE ( 'NONE', *, *, #24, .F. ) ;
#16 = ORIENTED_EDGE ( 'NONE', *, *, #80, .F. ) ;
#17 = EDGE_LOOP ( 'NONE', ( #4, #21 ) ) ;
#18 = EDGE_LOOP ( 'NONE', ( #20, #96 ) ) ;
#19 = ORIENTED_EDGE ( 'NONE', *, *, #58, .F. ) ;
#20 = ORIENTED_EDGE ( 'NONE', *, *, #39, .F. ) ;
#21 = ORIENTED_EDGE ( 'NONE', *, *, #70, .F. ) ;
#22 = EDGE_LOOP ( 'NONE', ( #23, #98 ) ) ;
#23 = ORIENTED_EDGE ( 'NONE', *, *, #24, .T. ) ;
#24 = EDGE_CURVE ( 'NONE', #34, #33, #127, .T. ) ;
#25 = ORIENTED_EDGE ( 'NONE', *, *, #36, .T. ) ;
#26 = ORIENTED_EDGE ( 'NONE', *, *, #7, .F. ) ;
#27 = ORIENTED_EDGE ( 'NONE', *, *, #28, .F. ) ;
#28 = EDGE_CURVE ( 'NONE', #65, #194, #218, .T. ) ;
#29 = ADVANCED_FACE ( 'NONE', ( #170 ), #167, .T. ) ;
#30 = EDGE_LOOP ( 'NONE', ( #31, #129, #158, #35 ) ) ;
#31 = ORIENTED_EDGE ( 'NONE', *, *, #32, .F. ) ;
#32 = EDGE_CURVE ( 'NONE', #33, #34, #201, .T. ) ;
#33 = VERTEX_POINT ( 'NONE', #196 ) ;
#34 = VERTEX_POINT ( 'NONE', #195 ) ;
#35 = ORIENTED_EDGE ( 'NONE', *, *, #36, .F. ) ;
#36 = EDGE_CURVE ( 'NONE', #34, #217, #283, .T. ) ;
#37 = ADVANCED_FACE ( 'NONE', ( #279 ), #276, .T. ) ;
#38 = ORIENTED_EDGE ( 'NONE', *, *, #39, .T. ) ;
#39 = EDGE_CURVE ( 'NONE', #40, #41, #190, .T. ) ;
#40 = VERTEX_POINT ( 'NONE', #185 ) ;
#41 = VERTEX_POINT ( 'NONE', #184 ) ;
#42 = ORIENTED_EDGE ( 'NONE', *, *, #43, .T. ) ;
#43 = EDGE_CURVE ( 'NONE', #41, #217, #183, .T. ) ;
#44 = ORIENTED_EDGE ( 'NONE', *, *, #224, .T. ) ;
#45 = ORIENTED_EDGE ( 'NONE', *, *, #47, .F. ) ;
#46 = MANIFOLD_SOLID_BREP ( 'NONE', #84 ) ;
#47 = EDGE_CURVE ( 'NONE', #40, #130, #179, .T. ) ;
#48 = ADVANCED_FACE ( 'NONE', ( #175 ), #174, .F. ) ;
#49 = EDGE_LOOP ( 'NONE', ( #50, #54, #57, #71 ) ) ;
#50 = ORIENTED_EDGE ( 'NONE', *, *, #51, .F. ) ;
#51 = EDGE_CURVE ( 'NONE', #52, #53, #232, .T. ) ;
#52 = VERTEX_POINT ( 'NONE', #114 ) ;
#53 = VERTEX_POINT ( 'NONE', #113 ) ;
#54 = ORIENTED_EDGE ( 'NONE', *, *, #55, .T. ) ;
#55 = EDGE_CURVE ( 'NONE', #52, #56, #112, .T. ) ;
#56 = VERTEX_POINT ( 'NONE', #108 ) ;
#57 = ORIENTED_EDGE ( 'NONE', *, *, #58, .T. ) ;
#58 = EDGE_CURVE ( 'NONE', #56, #59, #107, .T. ) ;
#59 = VERTEX_POINT ( 'NONE', #102 ) ;
#60 = ADVANCED_FACE ( 'NONE', ( #101 ), #100, .F. ) ;
#61 = EDGE_LOOP ( 'NONE', ( #62, #66, #69, #27 ) ) ;
#62 = ORIENTED_EDGE ( 'NONE', *, *, #63, .F. ) ;
#63 = EDGE_CURVE ( 'NONE', #64, #65, #271, .T. ) ;
#64 = VERTEX_POINT ( 'NONE', #156 ) ;
#65 = VERTEX_POINT ( 'NONE', #155 ) ;
#66 = ORIENTED_EDGE ( 'NONE', *, *, #67, .T. ) ;
#67 = EDGE_CURVE ( 'NONE', #64, #68, #154, .T. ) ;
#68 = VERTEX_POINT ( 'NONE', #150 ) ;
#69 = ORIENTED_EDGE ( 'NONE', *, *, #70, .T. ) ;
#70 = EDGE_CURVE ( 'NONE', #68, #194, #149, .T. ) ;
#71 = ORIENTED_EDGE ( 'NONE', *, *, #72, .F. ) ;
#72 = EDGE_CURVE ( 'NONE', #53, #59, #144, .T. ) ;
#73 = ADVANCED_FACE ( 'NONE', ( #140 ), #138, .F. ) ;
#74 = EDGE_LOOP ( 'NONE', ( #75, #76, #78, #79 ) ) ;
#75 = ORIENTED_EDGE ( 'NONE', *, *, #55, .F. ) ;
#76 = ORIENTED_EDGE ( 'NONE', *, *, #77, .F. ) ;
#77 = EDGE_CURVE ( 'NONE', #53, #52, #139, .T. ) ;
#78 = ORIENTED_EDGE ( 'NONE', *, *, #72, .T. ) ;
#79 = ORIENTED_EDGE ( 'NONE', *, *, #80, .T. ) ;
#80 = EDGE_CURVE ( 'NONE', #59, #56, #261, .T. ) ;
#81 = ADVANCED_FACE ( 'NONE', ( #256 ), #255, .T. ) ;
#82 = EDGE_LOOP ( 'NONE', ( #11, #8, #10, #6 ) ) ;
#83 = ORIENTED_EDGE ( 'NONE', *, *, #5, .T. ) ;
#84 = CLOSED_SHELL ( 'NONE', ( #60, #29, #37, #48, #73, #81, #94, #97, #99, #12, #87 ) ) ;
#85 = ORIENTED_EDGE ( 'NONE', *, *, #63, .T. ) ;
#86 = EDGE_LOOP ( 'NONE', ( #88, #92 ) ) ;
#87 = ADVANCED_FACE ( 'NONE', ( #253 ), #249, .F. ) ;
#88 = ORIENTED_EDGE ( 'NONE', *, *, #77, .T. ) ;
#89 = ORIENTED_EDGE ( 'NONE', *, *, #3, .F. ) ;
#90 = ORIENTED_EDGE ( 'NONE', *, *, #28, .T. ) ;
#91 = ORIENTED_EDGE ( 'NONE', *, *, #67, .F. ) ;
#92 = ORIENTED_EDGE ( 'NONE', *, *, #51, .T. ) ;
#93 = EDGE_LOOP ( 'NONE', ( #91, #89, #90, #83 ) ) ;
#94 = ADVANCED_FACE ( 'NONE', ( #247, #243 ), #242, .F. ) ;
#95 = EDGE_LOOP ( 'NONE', ( #16, #19 ) ) ;
#96 = ORIENTED_EDGE ( 'NONE', *, *, #9, .F. ) ;
#97 = ADVANCED_FACE ( 'NONE', ( #239, #235 ), #240, .T. ) ;
#98 = ORIENTED_EDGE ( 'NONE', *, *, #32, .T. ) ;
#99 = ADVANCED_FACE ( 'NONE', ( #214 ), #213, .T. ) ;
#100 = CYLINDRICAL_SURFACE ( 'NONE', #275, 4.750000000000000000 ) ;
#101 = FACE_OUTER_BOUND ( 'NONE', #61, .T. ) ;
#102 = CARTESIAN_POINT ( 'NONE',  ( -2.649999999999999900, 0.0000000000000000000, -12.00000000000000000 ) ) ;
#103 = DIRECTION ( 'NONE',  ( -1.000000000000000000, 0.0000000000000000000, 0.0000000000000000000 ) ) ;
#104 = DIRECTION ( 'NONE',  ( 0.0000000000000000000, 0.0000000000000000000, -1.000000000000000000 ) ) ;
#105 = CARTESIAN_POINT ( 'NONE',  ( 0.0000000000000000000, 0.0000000000000000000, -12.00000000000000000 ) ) ;
#106 = AXIS2_PLACEMENT_3D ( 'NONE', #105, #104, #103 ) ;
#107 = CIRCLE ( 'NONE', #106, 2.649999999999999900 ) ;
#108 = CARTESIAN_POINT ( 'NONE',  ( 2.649999999999999900, 3.245206837629299400E-016, -12.00000000000000000 ) ) ;
#109 = DIRECTION ( 'NONE',  ( -0.0000000000000000000, -0.0000000000000000000, -1.000000000000000000 ) ) ;
#110 = VECTOR ( 'NONE', #109, 1000.000000000000000 ) ;
#111 = CARTESIAN_POINT ( 'NONE',  ( 2.649999999999999900, 3.245206837629299400E-016, 0.0009999999999992653700 ) ) ;
#112 = LINE ( 'NONE', #111, #110 ) ;
#113 = CARTESIAN_POINT ( 'NONE',  ( -2.649999999999999900, 0.0000000000000000000, -5.500000000000000000 ) ) ;
#114 = CARTESIAN_POINT ( 'NONE',  ( 2.649999999999999900, 3.245206837629299400E-016, -5.500000000000000000 ) ) ;
#115 = DIRECTION ( 'NONE',  ( 1.000000000000000000, 0.0000000000000000000, 0.0000000000000000000 ) ) ;
#116 = DIRECTION ( 'NONE',  ( 0.0000000000000000000, 0.0000000000000000000, 1.000000000000000000 ) ) ;
#117 = AXIS2_PLACEMENT_3D ( 'NONE', #193, #116, #115 ) ;
#118 = DIRECTION ( 'NONE',  ( 1.000000000000000000, 0.0000000000000000000, 0.0000000000000000000 ) ) ;
#119 = DIRECTION ( 'NONE',  ( 0.0000000000000000000, 0.0000000000000000000, 1.000000000000000000 ) ) ;
#120 = EDGE_LOOP ( 'NONE', ( #38, #42, #44, #45 ) ) ;
#121 = AXIS2_PLACEMENT_3D ( 'NONE', #131, #119, #118 ) ;
#122 = CIRCLE ( 'NONE', #121, 4.750000000000000000 ) ;
#123 = CARTESIAN_POINT ( 'NONE',  ( 0.0000000000000000000, 0.0000000000000000000, -0.5000000000000022200 ) ) ;
#124 = DIRECTION ( 'NONE',  ( 0.0000000000000000000, 0.0000000000000000000, 1.000000000000000000 ) ) ;
#125 = AXIS2_PLACEMENT_3D ( 'NONE', #205, #124, #166 ) ;
#126 = CIRCLE ( 'NONE', #125, 8.000000000000000000 ) ;
#127 = CIRCLE ( 'NONE', #222, 7.500000000000000000 ) ;
#128 = DIRECTION ( 'NONE',  ( 1.000000000000000000, 0.0000000000000000000, -0.0000000000000000000 ) ) ;
#129 = ORIENTED_EDGE ( 'NONE', *, *, #267, .T. ) ;
#130 = VERTEX_POINT ( 'NONE', #211 ) ;
#131 = CARTESIAN_POINT ( 'NONE',  ( 0.0000000000000000000, 0.0000000000000000000, 0.0000000000000000000 ) ) ;
#132 = DIRECTION ( 'NONE',  ( 1.000000000000000000, 0.0000000000000000000, 0.0000000000000000000 ) ) ;
#133 = DIRECTION ( 'NONE',  ( 0.0000000000000000000, 0.0000000000000000000, -1.000000000000000000 ) ) ;
#134 = AXIS2_PLACEMENT_3D ( 'NONE', #123, #133, #132 ) ;
#135 = DIRECTION ( 'NONE',  ( -0.0000000000000000000, -0.0000000000000000000, -1.000000000000000000 ) ) ;
#136 = CARTESIAN_POINT ( 'NONE',  ( 0.0000000000000000000, 0.0000000000000000000, 0.0009999999999992653700 ) ) ;
#137 = AXIS2_PLACEMENT_3D ( 'NONE', #136, #135, #266 ) ;
#138 = CYLINDRICAL_SURFACE ( 'NONE', #137, 2.649999999999999900 ) ;
#139 = CIRCLE ( 'NONE', #265, 2.649999999999999900 ) ;
#140 = FACE_OUTER_BOUND ( 'NONE', #74, .T. ) ;
#141 = DIRECTION ( 'NONE',  ( -0.0000000000000000000, -0.0000000000000000000, -1.000000000000000000 ) ) ;
#142 = VECTOR ( 'NONE', #141, 1000.000000000000000 ) ;
#143 = CARTESIAN_POINT ( 'NONE',  ( -2.649999999999999900, 0.0000000000000000000, 0.0009999999999992653700 ) ) ;
#144 = LINE ( 'NONE', #143, #142 ) ;
#145 = DIRECTION ( 'NONE',  ( 1.000000000000000000, 0.0000000000000000000, 0.0000000000000000000 ) ) ;
#146 = DIRECTION ( 'NONE',  ( 0.0000000000000000000, 0.0000000000000000000, 1.000000000000000000 ) ) ;
#147 = CARTESIAN_POINT ( 'NONE',  ( 0.0000000000000000000, 0.0000000000000000000, 0.0000000000000000000 ) ) ;
#148 = AXIS2_PLACEMENT_3D ( 'NONE', #147, #146, #145 ) ;
#149 = CIRCLE ( 'NONE', #148, 4.750000000000000000 ) ;
#150 = CARTESIAN_POINT ( 'NONE',  ( -4.750000000000000000, 5.816880180656292000E-016, 0.0000000000000000000 ) ) ;
#151 = DIRECTION ( 'NONE',  ( -0.0000000000000000000, -0.0000000000000000000, 1.000000000000000000 ) ) ;
#152 = VECTOR ( 'NONE', #151, 1000.000000000000000 ) ;
#153 = CARTESIAN_POINT ( 'NONE',  ( -4.750000000000000000, 5.816880180656292000E-016, -5.500000000000000000 ) ) ;
#154 = LINE ( 'NONE', #153, #152 ) ;
#155 = CARTESIAN_POINT ( 'NONE',  ( 4.750000000000000000, 0.0000000000000000000, -5.500000000000000000 ) ) ;
#156 = CARTESIAN_POINT ( 'NONE',  ( -4.750000000000000000, 5.816880180656292000E-016, -5.500000000000000000 ) ) ;
#157 = DIRECTION ( 'NONE',  ( 1.000000000000000000, 0.0000000000000000000, 0.0000000000000000000 ) ) ;
#158 = ORIENTED_EDGE ( 'NONE', *, *, #224, .F. ) ;
#159 = CIRCLE ( 'NONE', #117, 4.750000000000000000 ) ;
#160 = DIRECTION ( 'NONE',  ( 0.0000000000000000000, 0.0000000000000000000, 1.000000000000000000 ) ) ;
#161 = CARTESIAN_POINT ( 'NONE',  ( 0.0000000000000000000, 0.0000000000000000000, -5.500000000000000000 ) ) ;
#162 = AXIS2_PLACEMENT_3D ( 'NONE', #161, #160, #128 ) ;
#163 = PLANE ( 'NONE',  #162 ) ;
#164 = FACE_BOUND ( 'NONE', #86, .T. ) ;
#165 = FACE_OUTER_BOUND ( 'NONE', #1, .T. ) ;
#166 = DIRECTION ( 'NONE',  ( 1.000000000000000000, 0.0000000000000000000, 0.0000000000000000000 ) ) ;
#167 = CONICAL_SURFACE ( 'NONE', #169, 7.500000000000000000, 0.7853981633974466100 ) ;
#168 = CARTESIAN_POINT ( 'NONE',  ( 0.0000000000000000000, 0.0000000000000000000, 0.0000000000000000000 ) ) ;
#169 = AXIS2_PLACEMENT_3D ( 'NONE', #168, #203, #202 ) ;
#170 = FACE_OUTER_BOUND ( 'NONE', #30, .T. ) ;
#171 = DIRECTION ( 'NONE',  ( -0.0000000000000000000, -0.0000000000000000000, 1.000000000000000000 ) ) ;
#172 = VECTOR ( 'NONE', #171, 1000.000000000000000 ) ;
#173 = CARTESIAN_POINT ( 'NONE',  ( 0.0000000000000000000, 0.0000000000000000000, 0.0009999999999992653700 ) ) ;
#174 = CYLINDRICAL_SURFACE ( 'NONE', #231, 2.649999999999999900 ) ;
#175 = FACE_OUTER_BOUND ( 'NONE', #49, .T. ) ;
#176 = DIRECTION ( 'NONE',  ( 0.0000000000000000000, 0.0000000000000000000, 1.000000000000000000 ) ) ;
#177 = VECTOR ( 'NONE', #176, 1000.000000000000000 ) ;
#178 = CARTESIAN_POINT ( 'NONE',  ( 8.000000000000000000, 0.0000000000000000000, -12.00000000000000000 ) ) ;
#179 = LINE ( 'NONE', #178, #177 ) ;
#180 = DIRECTION ( 'NONE',  ( 0.0000000000000000000, 0.0000000000000000000, 1.000000000000000000 ) ) ;
#181 = VECTOR ( 'NONE', #180, 1000.000000000000000 ) ;
#182 = CARTESIAN_POINT ( 'NONE',  ( -8.000000000000000000, 9.796850830579018100E-016, -12.00000000000000000 ) ) ;
#183 = LINE ( 'NONE', #182, #181 ) ;
#184 = CARTESIAN_POINT ( 'NONE',  ( -8.000000000000000000, 9.796850830579018100E-016, -12.00000000000000000 ) ) ;
#185 = CARTESIAN_POINT ( 'NONE',  ( 8.000000000000000000, 0.0000000000000000000, -12.00000000000000000 ) ) ;
#186 = DIRECTION ( 'NONE',  ( 1.000000000000000000, 0.0000000000000000000, 0.0000000000000000000 ) ) ;
#187 = DIRECTION ( 'NONE',  ( 0.0000000000000000000, 0.0000000000000000000, 1.000000000000000000 ) ) ;
#188 = CARTESIAN_POINT ( 'NONE',  ( 0.0000000000000000000, 0.0000000000000000000, -12.00000000000000000 ) ) ;
#189 = AXIS2_PLACEMENT_3D ( 'NONE', #188, #187, #186 ) ;
#190 = CIRCLE ( 'NONE', #189, 8.000000000000000000 ) ;
#191 = DIRECTION ( 'NONE',  ( 1.000000000000000000, 0.0000000000000000000, 0.0000000000000000000 ) ) ;
#192 = DIRECTION ( 'NONE',  ( 0.0000000000000000000, 0.0000000000000000000, 1.000000000000000000 ) ) ;
#193 = CARTESIAN_POINT ( 'NONE',  ( 0.0000000000000000000, 0.0000000000000000000, -5.500000000000000000 ) ) ;
#194 = VERTEX_POINT ( 'NONE', #207 ) ;
#195 = CARTESIAN_POINT ( 'NONE',  ( -7.500000000000000000, 0.0000000000000000000, 0.0000000000000000000 ) ) ;
#196 = CARTESIAN_POINT ( 'NONE',  ( 7.500000000000000000, 9.490699242123423800E-016, 0.0000000000000000000 ) ) ;
#197 = DIRECTION ( 'NONE',  ( 1.000000000000000000, 0.0000000000000000000, 0.0000000000000000000 ) ) ;
#198 = DIRECTION ( 'NONE',  ( 0.0000000000000000000, 0.0000000000000000000, 1.000000000000000000 ) ) ;
#199 = CARTESIAN_POINT ( 'NONE',  ( 0.0000000000000000000, 0.0000000000000000000, 0.0000000000000000000 ) ) ;
#200 = AXIS2_PLACEMENT_3D ( 'NONE', #199, #198, #197 ) ;
#201 = CIRCLE ( 'NONE', #200, 7.500000000000000000 ) ;
#202 = DIRECTION ( 'NONE',  ( -1.000000000000000000, 0.0000000000000000000, 0.0000000000000000000 ) ) ;
#203 = DIRECTION ( 'NONE',  ( 0.0000000000000000000, 0.0000000000000000000, -1.000000000000000000 ) ) ;
#204 = CIRCLE ( 'NONE', #134, 8.000000000000000000 ) ;
#205 = CARTESIAN_POINT ( 'NONE',  ( 0.0000000000000000000, 0.0000000000000000000, -12.00000000000000000 ) ) ;
#206 = CARTESIAN_POINT ( 'NONE',  ( -8.000000000000000000, 9.796850830579018100E-016, -0.5000000000000022200 ) ) ;
#207 = CARTESIAN_POINT ( 'NONE',  ( 4.750000000000000000, 0.0000000000000000000, 0.0000000000000000000 ) ) ;
#208 = DIRECTION ( 'NONE',  ( -1.000000000000000000, 0.0000000000000000000, 0.0000000000000000000 ) ) ;
#209 = DIRECTION ( 'NONE',  ( 0.0000000000000000000, 0.0000000000000000000, -1.000000000000000000 ) ) ;
#210 = AXIS2_PLACEMENT_3D ( 'NONE', #212, #209, #208 ) ;
#211 = CARTESIAN_POINT ( 'NONE',  ( 8.000000000000000000, 0.0000000000000000000, -0.5000000000000022200 ) ) ;
#212 = CARTESIAN_POINT ( 'NONE',  ( 0.0000000000000000000, 0.0000000000000000000, 0.0000000000000000000 ) ) ;
#213 = CONICAL_SURFACE ( 'NONE', #210, 7.500000000000000000, 0.7853981633974466100 ) ;
#214 = FACE_OUTER_BOUND ( 'NONE', #13, .T. ) ;
#215 = DIRECTION ( 'NONE',  ( 1.000000000000000000, 0.0000000000000000000, -0.0000000000000000000 ) ) ;
#216 = DIRECTION ( 'NONE',  ( 0.0000000000000000000, 0.0000000000000000000, 1.000000000000000000 ) ) ;
#217 = VERTEX_POINT ( 'NONE', #206 ) ;
#218 = LINE ( 'NONE', #223, #172 ) ;
#219 = DIRECTION ( 'NONE',  ( 1.000000000000000000, 0.0000000000000000000, 0.0000000000000000000 ) ) ;
#220 = DIRECTION ( 'NONE',  ( 0.0000000000000000000, 0.0000000000000000000, 1.000000000000000000 ) ) ;
#221 = CARTESIAN_POINT ( 'NONE',  ( 0.0000000000000000000, 0.0000000000000000000, 0.0000000000000000000 ) ) ;
#222 = AXIS2_PLACEMENT_3D ( 'NONE', #221, #220, #219 ) ;
#223 = CARTESIAN_POINT ( 'NONE',  ( 4.750000000000000000, 0.0000000000000000000, -5.500000000000000000 ) ) ;
#224 = EDGE_CURVE ( 'NONE', #217, #130, #289, .T. ) ;
#225 = DIRECTION ( 'NONE',  ( 1.000000000000000000, 0.0000000000000000000, 0.0000000000000000000 ) ) ;
#226 = DIRECTION ( 'NONE',  ( -0.0000000000000000000, -0.0000000000000000000, -1.000000000000000000 ) ) ;
#227 = CARTESIAN_POINT ( 'NONE',  ( 0.0000000000000000000, 0.0000000000000000000, -5.500000000000000000 ) ) ;
#228 = AXIS2_PLACEMENT_3D ( 'NONE', #227, #226, #225 ) ;
#229 = DIRECTION ( 'NONE',  ( -1.000000000000000000, 0.0000000000000000000, 0.0000000000000000000 ) ) ;
#230 = DIRECTION ( 'NONE',  ( -0.0000000000000000000, -0.0000000000000000000, -1.000000000000000000 ) ) ;
#231 = AXIS2_PLACEMENT_3D ( 'NONE', #173, #230, #229 ) ;
#232 = CIRCLE ( 'NONE', #228, 2.649999999999999900 ) ;
#233 = CARTESIAN_POINT ( 'NONE',  ( 0.0000000000000000000, 0.0000000000000000000, 0.0000000000000000000 ) ) ;
#234 = AXIS2_PLACEMENT_3D ( 'NONE', #233, #216, #215 ) ;
#235 = FACE_OUTER_BOUND ( 'NONE', #22, .T. ) ;
#236 = DIRECTION ( 'NONE',  ( 1.000000000000000000, 0.0000000000000000000, -0.0000000000000000000 ) ) ;
#237 = DIRECTION ( 'NONE',  ( 0.0000000000000000000, 0.0000000000000000000, 1.000000000000000000 ) ) ;
#238 = CARTESIAN_POINT ( 'NONE',  ( 0.0000000000000000000, 0.0000000000000000000, -12.00000000000000000 ) ) ;
#239 = FACE_BOUND ( 'NONE', #17, .T. ) ;
#240 = PLANE ( 'NONE',  #234 ) ;
#241 = AXIS2_PLACEMENT_3D ( 'NONE', #238, #237, #236 ) ;
#242 = PLANE ( 'NONE',  #241 ) ;
#243 = FACE_OUTER_BOUND ( 'NONE', #18, .T. ) ;
#244 = DIRECTION ( 'NONE',  ( 1.000000000000000000, 0.0000000000000000000, 0.0000000000000000000 ) ) ;
#245 = DIRECTION ( 'NONE',  ( -0.0000000000000000000, -0.0000000000000000000, 1.000000000000000000 ) ) ;
#246 = AXIS2_PLACEMENT_3D ( 'NONE', #248, #245, #244 ) ;
#247 = FACE_BOUND ( 'NONE', #95, .T. ) ;
#248 = CARTESIAN_POINT ( 'NONE',  ( 0.0000000000000000000, 0.0000000000000000000, -5.500000000000000000 ) ) ;
#249 = CYLINDRICAL_SURFACE ( 'NONE', #246, 4.750000000000000000 ) ;
#250 = DIRECTION ( 'NONE',  ( 1.000000000000000000, 0.0000000000000000000, 0.0000000000000000000 ) ) ;
#251 = DIRECTION ( 'NONE',  ( 0.0000000000000000000, 0.0000000000000000000, 1.000000000000000000 ) ) ;
#252 = AXIS2_PLACEMENT_3D ( 'NONE', #254, #251, #250 ) ;
#253 = FACE_OUTER_BOUND ( 'NONE', #93, .T. ) ;
#254 = CARTESIAN_POINT ( 'NONE',  ( 0.0000000000000000000, 0.0000000000000000000, -12.00000000000000000 ) ) ;
#255 = CYLINDRICAL_SURFACE ( 'NONE', #252, 8.000000000000000000 ) ;
#256 = FACE_OUTER_BOUND ( 'NONE', #82, .T. ) ;
#257 = DIRECTION ( 'NONE',  ( -1.000000000000000000, 0.0000000000000000000, 0.0000000000000000000 ) ) ;
#258 = DIRECTION ( 'NONE',  ( 0.0000000000000000000, 0.0000000000000000000, -1.000000000000000000 ) ) ;
#259 = CARTESIAN_POINT ( 'NONE',  ( 0.0000000000000000000, 0.0000000000000000000, -12.00000000000000000 ) ) ;
#260 = AXIS2_PLACEMENT_3D ( 'NONE', #259, #258, #257 ) ;
#261 = CIRCLE ( 'NONE', #260, 2.649999999999999900 ) ;
#262 = DIRECTION ( 'NONE',  ( 1.000000000000000000, 0.0000000000000000000, 0.0000000000000000000 ) ) ;
#263 = DIRECTION ( 'NONE',  ( -0.0000000000000000000, -0.0000000000000000000, -1.000000000000000000 ) ) ;
#264 = CARTESIAN_POINT ( 'NONE',  ( 0.0000000000000000000, 0.0000000000000000000, -5.500000000000000000 ) ) ;
#265 = AXIS2_PLACEMENT_3D ( 'NONE', #264, #263, #262 ) ;
#266 = DIRECTION ( 'NONE',  ( -1.000000000000000000, 0.0000000000000000000, 0.0000000000000000000 ) ) ;
#267 = EDGE_CURVE ( 'NONE', #33, #130, #284, .T. ) ;
#268 = DIRECTION ( 'NONE',  ( 0.0000000000000000000, 0.0000000000000000000, 1.000000000000000000 ) ) ;
#269 = CARTESIAN_POINT ( 'NONE',  ( 0.0000000000000000000, 0.0000000000000000000, -5.500000000000000000 ) ) ;
#270 = AXIS2_PLACEMENT_3D ( 'NONE', #269, #268, #157 ) ;
#271 = CIRCLE ( 'NONE', #270, 4.750000000000000000 ) ;
#272 = DIRECTION ( 'NONE',  ( 1.000000000000000000, 0.0000000000000000000, 0.0000000000000000000 ) ) ;
#273 = DIRECTION ( 'NONE',  ( -0.0000000000000000000, -0.0000000000000000000, 1.000000000000000000 ) ) ;
#274 = CARTESIAN_POINT ( 'NONE',  ( 0.0000000000000000000, 0.0000000000000000000, -5.500000000000000000 ) ) ;
#275 = AXIS2_PLACEMENT_3D ( 'NONE', #274, #273, #272 ) ;
#276 = CYLINDRICAL_SURFACE ( 'NONE', #278, 8.000000000000000000 ) ;
#277 = CARTESIAN_POINT ( 'NONE',  ( 0.0000000000000000000, 0.0000000000000000000, -12.00000000000000000 ) ) ;
#278 = AXIS2_PLACEMENT_3D ( 'NONE', #277, #192, #191 ) ;
#279 = FACE_OUTER_BOUND ( 'NONE', #120, .T. ) ;
#280 = DIRECTION ( 'NONE',  ( -0.7071067811865463500, 0.0000000000000000000, -0.7071067811865487900 ) ) ;
#281 = VECTOR ( 'NONE', #280, 1000.000000000000000 ) ;
#282 = CARTESIAN_POINT ( 'NONE',  ( -7.500000000000000000, 0.0000000000000000000, 0.0000000000000000000 ) ) ;
#283 = LINE ( 'NONE', #282, #281 ) ;
#284 = LINE ( 'NONE', #290, #329 ) ;
#285 = DIRECTION ( 'NONE',  ( 1.000000000000000000, 0.0000000000000000000, 0.0000000000000000000 ) ) ;
#286 = DIRECTION ( 'NONE',  ( 0.0000000000000000000, 0.0000000000000000000, -1.000000000000000000 ) ) ;
#287 = CARTESIAN_POINT ( 'NONE',  ( 0.0000000000000000000, 0.0000000000000000000, -0.5000000000000022200 ) ) ;
#288 = AXIS2_PLACEMENT_3D ( 'NONE', #287, #286, #285 ) ;
#289 = CIRCLE ( 'NONE', #288, 8.000000000000000000 ) ;
#290 = CARTESIAN_POINT ( 'NONE',  ( 7.500000000000000000, 9.184547653667829400E-016, 0.0000000000000000000 ) ) ;
#291 = SHAPE_DEFINITION_REPRESENTATION ( #298, #321 ) ;
#292 = DIRECTION ( 'NONE',  ( 1.000000000000000000, 0.0000000000000000000, 0.0000000000000000000 ) ) ;
#293 = DIRECTION ( 'NONE',  ( 0.0000000000000000000, 0.0000000000000000000, 1.000000000000000000 ) ) ;
#294 = CARTESIAN_POINT ( 'NONE',  ( 0.0000000000000000000, 0.0000000000000000000, 0.0000000000000000000 ) ) ;
#295 =( GEOMETRIC_REPRESENTATION_CONTEXT ( 3 ) GLOBAL_UNCERTAINTY_ASSIGNED_CONTEXT ( ( #296 ) ) GLOBAL_UNIT_ASSIGNED_CONTEXT ( ( #309, #308, #297 ) ) REPRESENTATION_CONTEXT ( 'NONE', 'WORKASPACE' ) );
#296 = UNCERTAINTY_MEASURE_WITH_UNIT (LENGTH_MEASURE( 1.000000000000000100E-005 ), #309, 'distance_accuracy_value', 'NONE');
#297 =( NAMED_UNIT ( * ) SI_UNIT ( $, .STERADIAN. ) SOLID_ANGLE_UNIT ( ) );
#298 = PRODUCT_DEFINITION_SHAPE ( 'NONE', 'NONE',  #301 ) ;
#299 = PRODUCT_RELATED_PRODUCT_CATEGORY ( 'part', '', ( #305 ) ) ;
#300 = PRODUCT_DEFINITION_FORMATION_WITH_SPECIFIED_SOURCE ( 'ANY', '', #305, .NOT_KNOWN. ) ;
#301 = PRODUCT_DEFINITION ( 'UNKNOWN', '', #300, #302 ) ;
#302 = PRODUCT_DEFINITION_CONTEXT ( 'detailed design', #304, 'design' ) ;
#303 = APPLICATION_PROTOCOL_DEFINITION ( 'draft international standard', 'automotive_design', 1998, #304 ) ;
#304 = APPLICATION_CONTEXT ( 'automotive_design' ) ;
#305 = PRODUCT ( '60600-2030540121768', '60600-2030540121768', '', ( #306 ) ) ;
#306 = PRODUCT_CONTEXT ( 'NONE', #320, 'mechanical' ) ;
#307 = APPLICATION_PROTOCOL_DEFINITION ( 'draft international standard', 'automotive_design', 1998, #320 ) ;
#308 =( NAMED_UNIT ( * ) PLANE_ANGLE_UNIT ( ) SI_UNIT ( $, .RADIAN. ) );
#309 =( LENGTH_UNIT ( ) NAMED_UNIT ( * ) SI_UNIT ( .MILLI., .METRE. ) );
#310 = MECHANICAL_DESIGN_GEOMETRIC_PRESENTATION_REPRESENTATION (  '', ( #312 ), #295 ) ;
#311 = PRESENTATION_LAYER_ASSIGNMENT (  '', '', ( #312 ) ) ;
#312 = STYLED_ITEM ( 'NONE', ( #313 ), #321 ) ;
#313 = PRESENTATION_STYLE_ASSIGNMENT (( #314 ) ) ;
#314 = SURFACE_STYLE_USAGE ( .BOTH. , #315 ) ;
#315 = SURFACE_SIDE_STYLE ('',( #316 ) ) ;
#316 = SURFACE_STYLE_FILL_AREA ( #317 ) ;
#317 = FILL_AREA_STYLE ('',( #318 ) ) ;
#318 = FILL_AREA_STYLE_COLOUR ( '', #319 ) ;
#319 = COLOUR_RGB ( '',0.5019607843137254800, 0.5019607843137254800, 0.5019607843137254800 ) ;
#320 = APPLICATION_CONTEXT ( 'automotive_design' ) ;
#321 = ADVANCED_BREP_SHAPE_REPRESENTATION ( '60600-2030540121768', ( #46, #327 ), #322 ) ;
#322 =( GEOMETRIC_REPRESENTATION_CONTEXT ( 3 ) GLOBAL_UNCERTAINTY_ASSIGNED_CONTEXT ( ( #323 ) ) GLOBAL_UNIT_ASSIGNED_CONTEXT ( ( #326, #325, #324 ) ) REPRESENTATION_CONTEXT ( 'NONE', 'WORKASPACE' ) );
#323 = UNCERTAINTY_MEASURE_WITH_UNIT (LENGTH_MEASURE( 1.000000000000000100E-005 ), #326, 'distance_accuracy_value', 'NONE');
#324 =( NAMED_UNIT ( * ) SI_UNIT ( $, .STERADIAN. ) SOLID_ANGLE_UNIT ( ) );
#325 =( NAMED_UNIT ( * ) PLANE_ANGLE_UNIT ( ) SI_UNIT ( $, .RADIAN. ) );
#326 =( LENGTH_UNIT ( ) NAMED_UNIT ( * ) SI_UNIT ( .MILLI., .METRE. ) );
#327 = AXIS2_PLACEMENT_3D ( 'NONE', #294, #293, #292 ) ;
#328 = DIRECTION ( 'NONE',  ( 0.7071067811865463500, 8.659274570719340600E-017, -0.7071067811865487900 ) ) ;
#329 = VECTOR ( 'NONE', #328, 1000.000000000000000 ) ;
ENDSEC;
END-ISO-10303-21;
