ISO-10303-21;
HEADER;
FILE_DESCRIPTION (( 'STEP AP203' ),
    '1' );
FILE_NAME ('60600-21116332367054.step',
    '2007-11-16T08:32:39',
    ( 'sysAdmin' ),
    ( 'SolidWorks' ),
    'SwSTEP 2.0',
    'SolidWorks 2008',
    '' );
FILE_SCHEMA (( 'CONFIG_CONTROL_DESIGN' ));
ENDSEC;

DATA;
#1 = ORIENTED_EDGE ( 'NONE', *, *, #12, .T. ) ;
#2 = ORIENTED_EDGE ( 'NONE', *, *, #240, .T. ) ;
#3 = ORIENTED_EDGE ( 'NONE', *, *, #128, .T. ) ;
#4 = ORIENTED_EDGE ( 'NONE', *, *, #108, .F. ) ;
#5 = CLOSED_SHELL ( 'NONE', ( #246, #31, #241, #257, #117, #141, #137, #124, #131, #10 ) ) ;
#6 = EDGE_LOOP ( 'NONE', ( #11, #4, #7, #8 ) ) ;
#7 = ORIENTED_EDGE ( 'NONE', *, *, #29, .T. ) ;
#8 = ORIENTED_EDGE ( 'NONE', *, *, #140, .F. ) ;
#9 = ORIENTED_EDGE ( 'NONE', *, *, #132, .T. ) ;
#10 = ADVANCED_FACE ( 'NONE', ( #225 ), #223, .T. ) ;
#11 = ORIENTED_EDGE ( 'NONE', *, *, #112, .F. ) ;
#12 = EDGE_CURVE ( 'NONE', #13, #17, #219, .T. ) ;
#13 = VERTEX_POINT ( 'NONE', #214 ) ;
#14 = ORIENTED_EDGE ( 'NONE', *, *, #15, .T. ) ;
#15 = EDGE_CURVE ( 'NONE', #238, #27, #213, .T. ) ;
#16 = ORIENTED_EDGE ( 'NONE', *, *, #26, .T. ) ;
#17 = VERTEX_POINT ( 'NONE', #60 ) ;
#18 = ORIENTED_EDGE ( 'NONE', *, *, #19, .T. ) ;
#19 = EDGE_CURVE ( 'NONE', #17, #20, #59, .T. ) ;
#20 = VERTEX_POINT ( 'NONE', #55 ) ;
#21 = ORIENTED_EDGE ( 'NONE', *, *, #22, .T. ) ;
#22 = EDGE_CURVE ( 'NONE', #20, #23, #54, .T. ) ;
#23 = VERTEX_POINT ( 'NONE', #49 ) ;
#24 = VERTEX_POINT ( 'NONE', #48 ) ;
#25 = ORIENTED_EDGE ( 'NONE', *, *, #26, .F. ) ;
#26 = EDGE_CURVE ( 'NONE', #27, #24, #47, .T. ) ;
#27 = VERTEX_POINT ( 'NONE', #42 ) ;
#28 = ORIENTED_EDGE ( 'NONE', *, *, #29, .F. ) ;
#29 = EDGE_CURVE ( 'NONE', #88, #27, #41, .T. ) ;
#30 = EDGE_LOOP ( 'NONE', ( #1, #18, #21, #239 ) ) ;
#31 = ADVANCED_FACE ( 'NONE', ( #37 ), #36, .F. ) ;
#32 = DIRECTION ( 'NONE',  ( -1.000000000000000000, 0.0000000000000000000, 0.0000000000000000000 ) ) ;
#33 = DIRECTION ( 'NONE',  ( -0.0000000000000000000, -0.0000000000000000000, -1.000000000000000000 ) ) ;
#34 = CARTESIAN_POINT ( 'NONE',  ( 0.0000000000000000000, 0.0000000000000000000, 0.001000000000000132700 ) ) ;
#35 = AXIS2_PLACEMENT_3D ( 'NONE', #34, #33, #32 ) ;
#36 = CYLINDRICAL_SURFACE ( 'NONE', #35, 2.649999999999999900 ) ;
#37 = FACE_OUTER_BOUND ( 'NONE', #30, .T. ) ;
#38 = DIRECTION ( 'NONE',  ( -0.7071067811865463500, 0.0000000000000000000, -0.7071067811865487900 ) ) ;
#39 = VECTOR ( 'NONE', #38, 1000.000000000000000 ) ;
#40 = CARTESIAN_POINT ( 'NONE',  ( -7.500000000000000000, 0.0000000000000000000, 0.0000000000000000000 ) ) ;
#41 = LINE ( 'NONE', #40, #39 ) ;
#42 = CARTESIAN_POINT ( 'NONE',  ( -8.000000000000000000, 9.796850830579018100E-016, -0.5000000000000022200 ) ) ;
#43 = DIRECTION ( 'NONE',  ( 1.000000000000000000, 0.0000000000000000000, 0.0000000000000000000 ) ) ;
#44 = DIRECTION ( 'NONE',  ( 0.0000000000000000000, 0.0000000000000000000, -1.000000000000000000 ) ) ;
#45 = CARTESIAN_POINT ( 'NONE',  ( 0.0000000000000000000, 0.0000000000000000000, -0.5000000000000022200 ) ) ;
#46 = AXIS2_PLACEMENT_3D ( 'NONE', #45, #44, #43 ) ;
#47 = CIRCLE ( 'NONE', #46, 8.000000000000000000 ) ;
#48 = CARTESIAN_POINT ( 'NONE',  ( 8.000000000000000000, 0.0000000000000000000, -0.5000000000000022200 ) ) ;
#49 = CARTESIAN_POINT ( 'NONE',  ( -2.649999999999999900, 0.0000000000000000000, -6.000000000000000000 ) ) ;
#50 = DIRECTION ( 'NONE',  ( -1.000000000000000000, 0.0000000000000000000, 0.0000000000000000000 ) ) ;
#51 = DIRECTION ( 'NONE',  ( 0.0000000000000000000, 0.0000000000000000000, -1.000000000000000000 ) ) ;
#52 = CARTESIAN_POINT ( 'NONE',  ( 0.0000000000000000000, 0.0000000000000000000, -6.000000000000000000 ) ) ;
#53 = AXIS2_PLACEMENT_3D ( 'NONE', #52, #51, #50 ) ;
#54 = CIRCLE ( 'NONE', #53, 2.649999999999999900 ) ;
#55 = CARTESIAN_POINT ( 'NONE',  ( 2.649999999999999900, 3.245206837629298900E-016, -6.000000000000000000 ) ) ;
#56 = DIRECTION ( 'NONE',  ( -0.0000000000000000000, -0.0000000000000000000, -1.000000000000000000 ) ) ;
#57 = VECTOR ( 'NONE', #56, 1000.000000000000000 ) ;
#58 = CARTESIAN_POINT ( 'NONE',  ( 2.649999999999999900, 3.245206837629298900E-016, 0.001000000000000132700 ) ) ;
#59 = LINE ( 'NONE', #58, #57 ) ;
#60 = CARTESIAN_POINT ( 'NONE',  ( 2.649999999999999900, 0.0000000000000000000, -3.099999999999988500 ) ) ;
#61 = CARTESIAN_POINT ( 'NONE',  ( 0.0000000000000000000, 0.0000000000000000000, 0.0000000000000000000 ) ) ;
#62 = PLANE ( 'NONE',  #64 ) ;
#63 = CIRCLE ( 'NONE', #198, 8.000000000000000000 ) ;
#64 = AXIS2_PLACEMENT_3D ( 'NONE', #61, #200, #199 ) ;
#65 = FACE_BOUND ( 'NONE', #110, .T. ) ;
#66 = FACE_OUTER_BOUND ( 'NONE', #106, .T. ) ;
#67 = DIRECTION ( 'NONE',  ( -1.000000000000000000, 0.0000000000000000000, 0.0000000000000000000 ) ) ;
#68 = DIRECTION ( 'NONE',  ( 0.0000000000000000000, 0.0000000000000000000, -1.000000000000000000 ) ) ;
#69 = CARTESIAN_POINT ( 'NONE',  ( 0.0000000000000000000, 0.0000000000000000000, -6.000000000000000000 ) ) ;
#70 = AXIS2_PLACEMENT_3D ( 'NONE', #69, #68, #67 ) ;
#71 = CIRCLE ( 'NONE', #70, 2.649999999999999900 ) ;
#72 = DIRECTION ( 'NONE',  ( -1.000000000000000000, 0.0000000000000000000, 0.0000000000000000000 ) ) ;
#73 = DIRECTION ( 'NONE',  ( -0.0000000000000000000, -0.0000000000000000000, -1.000000000000000000 ) ) ;
#74 = CARTESIAN_POINT ( 'NONE',  ( 0.0000000000000000000, 0.0000000000000000000, 0.001000000000000132700 ) ) ;
#75 = AXIS2_PLACEMENT_3D ( 'NONE', #74, #73, #72 ) ;
#76 = CYLINDRICAL_SURFACE ( 'NONE', #75, 2.649999999999999900 ) ;
#77 = FACE_OUTER_BOUND ( 'NONE', #248, .T. ) ;
#78 = DIRECTION ( 'NONE',  ( 1.000000000000000000, 0.0000000000000000000, 0.0000000000000000000 ) ) ;
#79 = DIRECTION ( 'NONE',  ( -0.0000000000000000000, -0.0000000000000000000, 1.000000000000000000 ) ) ;
#80 = CARTESIAN_POINT ( 'NONE',  ( 0.0000000000000000000, 0.0000000000000000000, -3.099999999999988500 ) ) ;
#81 = AXIS2_PLACEMENT_3D ( 'NONE', #80, #79, #78 ) ;
#82 = CIRCLE ( 'NONE', #81, 2.649999999999999900 ) ;
#83 = DIRECTION ( 'NONE',  ( 1.000000000000000000, 0.0000000000000000000, 0.0000000000000000000 ) ) ;
#84 = DIRECTION ( 'NONE',  ( -0.0000000000000000000, -0.0000000000000000000, 1.000000000000000000 ) ) ;
#85 = CARTESIAN_POINT ( 'NONE',  ( 0.0000000000000000000, 0.0000000000000000000, 0.0000000000000000000 ) ) ;
#86 = AXIS2_PLACEMENT_3D ( 'NONE', #85, #84, #83 ) ;
#87 = EDGE_CURVE ( 'NONE', #114, #88, #170, .T. ) ;
#88 = VERTEX_POINT ( 'NONE', #165 ) ;
#89 = DIRECTION ( 'NONE',  ( -1.000000000000000000, 0.0000000000000000000, 0.0000000000000000000 ) ) ;
#90 = DIRECTION ( 'NONE',  ( 0.0000000000000000000, 0.0000000000000000000, -1.000000000000000000 ) ) ;
#91 = CARTESIAN_POINT ( 'NONE',  ( 0.0000000000000000000, 0.0000000000000000000, 0.0000000000000000000 ) ) ;
#92 = AXIS2_PLACEMENT_3D ( 'NONE', #91, #90, #89 ) ;
#93 = CONICAL_SURFACE ( 'NONE', #92, 7.500000000000000000, 0.7853981633974466100 ) ;
#94 = DIRECTION ( 'NONE',  ( 1.000000000000000000, 0.0000000000000000000, 0.0000000000000000000 ) ) ;
#95 = DIRECTION ( 'NONE',  ( -0.0000000000000000000, -0.0000000000000000000, 1.000000000000000000 ) ) ;
#96 = CARTESIAN_POINT ( 'NONE',  ( 0.0000000000000000000, 0.0000000000000000000, 0.0000000000000000000 ) ) ;
#97 = AXIS2_PLACEMENT_3D ( 'NONE', #96, #95, #94 ) ;
#98 = FACE_OUTER_BOUND ( 'NONE', #247, .T. ) ;
#99 = CONICAL_SURFACE ( 'NONE', #97, 5.750000000000000000, 0.7853981633974501700 ) ;
#100 = FACE_OUTER_BOUND ( 'NONE', #242, .T. ) ;
#101 = DIRECTION ( 'NONE',  ( -0.0000000000000000000, -0.0000000000000000000, -1.000000000000000000 ) ) ;
#102 = VECTOR ( 'NONE', #101, 1000.000000000000000 ) ;
#103 = CARTESIAN_POINT ( 'NONE',  ( -2.649999999999999900, 0.0000000000000000000, 0.001000000000000132700 ) ) ;
#104 = LINE ( 'NONE', #103, #102 ) ;
#105 = CARTESIAN_POINT ( 'NONE',  ( -8.000000000000000000, 9.796850830579018100E-016, -6.000000000000000000 ) ) ;
#106 = EDGE_LOOP ( 'NONE', ( #107, #109 ) ) ;
#107 = ORIENTED_EDGE ( 'NONE', *, *, #108, .T. ) ;
#108 = EDGE_CURVE ( 'NONE', #88, #114, #163, .T. ) ;
#109 = ORIENTED_EDGE ( 'NONE', *, *, #87, .T. ) ;
#110 = EDGE_LOOP ( 'NONE', ( #111, #123 ) ) ;
#111 = ORIENTED_EDGE ( 'NONE', *, *, #122, .F. ) ;
#112 = EDGE_CURVE ( 'NONE', #114, #24, #164, .T. ) ;
#113 = ORIENTED_EDGE ( 'NONE', *, *, #87, .F. ) ;
#114 = VERTEX_POINT ( 'NONE', #155 ) ;
#115 = ORIENTED_EDGE ( 'NONE', *, *, #116, .F. ) ;
#116 = EDGE_CURVE ( 'NONE', #237, #24, #154, .T. ) ;
#117 = ADVANCED_FACE ( 'NONE', ( #150 ), #149, .T. ) ;
#118 = EDGE_LOOP ( 'NONE', ( #119, #120, #138, #139 ) ) ;
#119 = ORIENTED_EDGE ( 'NONE', *, *, #15, .F. ) ;
#120 = ORIENTED_EDGE ( 'NONE', *, *, #121, .T. ) ;
#121 = EDGE_CURVE ( 'NONE', #238, #237, #144, .T. ) ;
#122 = EDGE_CURVE ( 'NONE', #254, #251, #177, .T. ) ;
#123 = ORIENTED_EDGE ( 'NONE', *, *, #253, .F. ) ;
#124 = ADVANCED_FACE ( 'NONE', ( #172 ), #171, .F. ) ;
#125 = EDGE_LOOP ( 'NONE', ( #126, #127, #129, #130 ) ) ;
#126 = ORIENTED_EDGE ( 'NONE', *, *, #250, .F. ) ;
#127 = ORIENTED_EDGE ( 'NONE', *, *, #128, .F. ) ;
#128 = EDGE_CURVE ( 'NONE', #17, #13, #82, .T. ) ;
#129 = ORIENTED_EDGE ( 'NONE', *, *, #256, .T. ) ;
#130 = ORIENTED_EDGE ( 'NONE', *, *, #122, .T. ) ;
#131 = ADVANCED_FACE ( 'NONE', ( #77 ), #76, .F. ) ;
#132 = EDGE_CURVE ( 'NONE', #23, #20, #71, .T. ) ;
#133 = ORIENTED_EDGE ( 'NONE', *, *, #22, .F. ) ;
#134 = EDGE_LOOP ( 'NONE', ( #135, #136 ) ) ;
#135 = ORIENTED_EDGE ( 'NONE', *, *, #236, .F. ) ;
#136 = ORIENTED_EDGE ( 'NONE', *, *, #121, .F. ) ;
#137 = ADVANCED_FACE ( 'NONE', ( #66, #65 ), #62, .T. ) ;
#138 = ORIENTED_EDGE ( 'NONE', *, *, #116, .T. ) ;
#139 = ORIENTED_EDGE ( 'NONE', *, *, #140, .T. ) ;
#140 = EDGE_CURVE ( 'NONE', #24, #27, #63, .T. ) ;
#141 = ADVANCED_FACE ( 'NONE', ( #194, #193 ), #192, .F. ) ;
#142 = EDGE_LOOP ( 'NONE', ( #143, #133 ) ) ;
#143 = ORIENTED_EDGE ( 'NONE', *, *, #132, .F. ) ;
#144 = CIRCLE ( 'NONE', #181, 8.000000000000000000 ) ;
#145 = DIRECTION ( 'NONE',  ( 1.000000000000000000, 0.0000000000000000000, 0.0000000000000000000 ) ) ;
#146 = DIRECTION ( 'NONE',  ( 0.0000000000000000000, 0.0000000000000000000, 1.000000000000000000 ) ) ;
#147 = CARTESIAN_POINT ( 'NONE',  ( 0.0000000000000000000, 0.0000000000000000000, -6.000000000000000000 ) ) ;
#148 = AXIS2_PLACEMENT_3D ( 'NONE', #147, #146, #145 ) ;
#149 = CYLINDRICAL_SURFACE ( 'NONE', #148, 8.000000000000000000 ) ;
#150 = FACE_OUTER_BOUND ( 'NONE', #118, .T. ) ;
#151 = DIRECTION ( 'NONE',  ( 0.0000000000000000000, 0.0000000000000000000, 1.000000000000000000 ) ) ;
#152 = VECTOR ( 'NONE', #151, 1000.000000000000000 ) ;
#153 = CARTESIAN_POINT ( 'NONE',  ( 8.000000000000000000, 0.0000000000000000000, -6.000000000000000000 ) ) ;
#154 = LINE ( 'NONE', #153, #152 ) ;
#155 = CARTESIAN_POINT ( 'NONE',  ( 7.500000000000000000, 9.490699242123423800E-016, 0.0000000000000000000 ) ) ;
#156 = DIRECTION ( 'NONE',  ( 0.7071067811865463500, 8.659274570719340600E-017, -0.7071067811865487900 ) ) ;
#157 = VECTOR ( 'NONE', #156, 1000.000000000000000 ) ;
#158 = CARTESIAN_POINT ( 'NONE',  ( 7.500000000000000000, 9.184547653667829400E-016, 0.0000000000000000000 ) ) ;
#159 = DIRECTION ( 'NONE',  ( 1.000000000000000000, 0.0000000000000000000, 0.0000000000000000000 ) ) ;
#160 = DIRECTION ( 'NONE',  ( 0.0000000000000000000, 0.0000000000000000000, 1.000000000000000000 ) ) ;
#161 = CARTESIAN_POINT ( 'NONE',  ( 0.0000000000000000000, 0.0000000000000000000, 0.0000000000000000000 ) ) ;
#162 = AXIS2_PLACEMENT_3D ( 'NONE', #161, #160, #159 ) ;
#163 = CIRCLE ( 'NONE', #162, 7.500000000000000000 ) ;
#164 = LINE ( 'NONE', #158, #157 ) ;
#165 = CARTESIAN_POINT ( 'NONE',  ( -7.500000000000000000, 0.0000000000000000000, 0.0000000000000000000 ) ) ;
#166 = DIRECTION ( 'NONE',  ( 1.000000000000000000, 0.0000000000000000000, 0.0000000000000000000 ) ) ;
#167 = DIRECTION ( 'NONE',  ( 0.0000000000000000000, 0.0000000000000000000, 1.000000000000000000 ) ) ;
#168 = CARTESIAN_POINT ( 'NONE',  ( 0.0000000000000000000, 0.0000000000000000000, 0.0000000000000000000 ) ) ;
#169 = AXIS2_PLACEMENT_3D ( 'NONE', #168, #167, #166 ) ;
#170 = CIRCLE ( 'NONE', #169, 7.500000000000000000 ) ;
#171 = CONICAL_SURFACE ( 'NONE', #86, 5.750000000000000000, 0.7853981633974501700 ) ;
#172 = FACE_OUTER_BOUND ( 'NONE', #125, .T. ) ;
#173 = DIRECTION ( 'NONE',  ( 1.000000000000000000, 0.0000000000000000000, 0.0000000000000000000 ) ) ;
#174 = DIRECTION ( 'NONE',  ( 0.0000000000000000000, 0.0000000000000000000, 1.000000000000000000 ) ) ;
#175 = CARTESIAN_POINT ( 'NONE',  ( 0.0000000000000000000, 0.0000000000000000000, 0.0000000000000000000 ) ) ;
#176 = AXIS2_PLACEMENT_3D ( 'NONE', #175, #174, #173 ) ;
#177 = CIRCLE ( 'NONE', #176, 5.750000000000000000 ) ;
#178 = DIRECTION ( 'NONE',  ( 1.000000000000000000, 0.0000000000000000000, 0.0000000000000000000 ) ) ;
#179 = DIRECTION ( 'NONE',  ( 0.0000000000000000000, 0.0000000000000000000, 1.000000000000000000 ) ) ;
#180 = CARTESIAN_POINT ( 'NONE',  ( 0.0000000000000000000, 0.0000000000000000000, -6.000000000000000000 ) ) ;
#181 = AXIS2_PLACEMENT_3D ( 'NONE', #180, #179, #178 ) ;
#182 = CARTESIAN_POINT ( 'NONE',  ( 8.000000000000000000, 0.0000000000000000000, -6.000000000000000000 ) ) ;
#183 = DIRECTION ( 'NONE',  ( 1.000000000000000000, 0.0000000000000000000, 0.0000000000000000000 ) ) ;
#184 = DIRECTION ( 'NONE',  ( 0.0000000000000000000, 0.0000000000000000000, 1.000000000000000000 ) ) ;
#185 = CARTESIAN_POINT ( 'NONE',  ( 0.0000000000000000000, 0.0000000000000000000, -6.000000000000000000 ) ) ;
#186 = AXIS2_PLACEMENT_3D ( 'NONE', #185, #184, #183 ) ;
#187 = DIRECTION ( 'NONE',  ( 1.000000000000000000, 0.0000000000000000000, -0.0000000000000000000 ) ) ;
#188 = DIRECTION ( 'NONE',  ( 0.0000000000000000000, 0.0000000000000000000, 1.000000000000000000 ) ) ;
#189 = AXIS2_PLACEMENT_3D ( 'NONE', #191, #188, #187 ) ;
#190 = CIRCLE ( 'NONE', #186, 8.000000000000000000 ) ;
#191 = CARTESIAN_POINT ( 'NONE',  ( 0.0000000000000000000, 0.0000000000000000000, -6.000000000000000000 ) ) ;
#192 = PLANE ( 'NONE',  #189 ) ;
#193 = FACE_OUTER_BOUND ( 'NONE', #134, .T. ) ;
#194 = FACE_BOUND ( 'NONE', #142, .T. ) ;
#195 = DIRECTION ( 'NONE',  ( 1.000000000000000000, 0.0000000000000000000, 0.0000000000000000000 ) ) ;
#196 = DIRECTION ( 'NONE',  ( 0.0000000000000000000, 0.0000000000000000000, -1.000000000000000000 ) ) ;
#197 = CARTESIAN_POINT ( 'NONE',  ( 0.0000000000000000000, 0.0000000000000000000, -0.5000000000000022200 ) ) ;
#198 = AXIS2_PLACEMENT_3D ( 'NONE', #197, #196, #195 ) ;
#199 = DIRECTION ( 'NONE',  ( 1.000000000000000000, 0.0000000000000000000, -0.0000000000000000000 ) ) ;
#200 = DIRECTION ( 'NONE',  ( 0.0000000000000000000, 0.0000000000000000000, 1.000000000000000000 ) ) ;
#201 = ORIENTED_EDGE ( 'NONE', *, *, #112, .T. ) ;
#202 = CARTESIAN_POINT ( 'NONE',  ( 0.0000000000000000000, 0.0000000000000000000, 0.0000000000000000000 ) ) ;
#203 = AXIS2_PLACEMENT_3D ( 'NONE', #202, #233, #232 ) ;
#204 = CIRCLE ( 'NONE', #203, 5.750000000000000000 ) ;
#205 = CARTESIAN_POINT ( 'NONE',  ( -5.750000000000000000, 7.041486534478669200E-016, 0.0000000000000000000 ) ) ;
#206 = DIRECTION ( 'NONE',  ( -0.7071067811865489100, 8.659274570719371400E-017, 0.7071067811865462400 ) ) ;
#207 = VECTOR ( 'NONE', #206, 999.9999999999998900 ) ;
#208 = CARTESIAN_POINT ( 'NONE',  ( -5.750000000000000000, 7.041486534478669200E-016, 0.0000000000000000000 ) ) ;
#209 = LINE ( 'NONE', #208, #207 ) ;
#210 = DIRECTION ( 'NONE',  ( 0.0000000000000000000, 0.0000000000000000000, 1.000000000000000000 ) ) ;
#211 = VECTOR ( 'NONE', #210, 1000.000000000000000 ) ;
#212 = CARTESIAN_POINT ( 'NONE',  ( -8.000000000000000000, 9.796850830579018100E-016, -6.000000000000000000 ) ) ;
#213 = LINE ( 'NONE', #212, #211 ) ;
#214 = CARTESIAN_POINT ( 'NONE',  ( -2.649999999999999900, 5.143346686053983100E-016, -3.099999999999988500 ) ) ;
#215 = DIRECTION ( 'NONE',  ( 1.000000000000000000, 0.0000000000000000000, 0.0000000000000000000 ) ) ;
#216 = DIRECTION ( 'NONE',  ( -0.0000000000000000000, -0.0000000000000000000, 1.000000000000000000 ) ) ;
#217 = CARTESIAN_POINT ( 'NONE',  ( 0.0000000000000000000, 0.0000000000000000000, -3.099999999999988500 ) ) ;
#218 = AXIS2_PLACEMENT_3D ( 'NONE', #217, #216, #215 ) ;
#219 = CIRCLE ( 'NONE', #218, 2.649999999999999900 ) ;
#220 = DIRECTION ( 'NONE',  ( -1.000000000000000000, 0.0000000000000000000, 0.0000000000000000000 ) ) ;
#221 = DIRECTION ( 'NONE',  ( 0.0000000000000000000, 0.0000000000000000000, -1.000000000000000000 ) ) ;
#222 = AXIS2_PLACEMENT_3D ( 'NONE', #224, #221, #220 ) ;
#223 = CONICAL_SURFACE ( 'NONE', #222, 7.500000000000000000, 0.7853981633974466100 ) ;
#224 = CARTESIAN_POINT ( 'NONE',  ( 0.0000000000000000000, 0.0000000000000000000, 0.0000000000000000000 ) ) ;
#225 = FACE_OUTER_BOUND ( 'NONE', #6, .T. ) ;
#226 = FACE_OUTER_BOUND ( 'NONE', #234, .T. ) ;
#227 = DIRECTION ( 'NONE',  ( 0.7071067811865489100, 0.0000000000000000000, 0.7071067811865462400 ) ) ;
#228 = VECTOR ( 'NONE', #227, 999.9999999999998900 ) ;
#229 = CARTESIAN_POINT ( 'NONE',  ( 5.750000000000000000, 0.0000000000000000000, 0.0000000000000000000 ) ) ;
#230 = LINE ( 'NONE', #229, #228 ) ;
#231 = CARTESIAN_POINT ( 'NONE',  ( 5.750000000000000000, 0.0000000000000000000, 0.0000000000000000000 ) ) ;
#232 = DIRECTION ( 'NONE',  ( 1.000000000000000000, 0.0000000000000000000, 0.0000000000000000000 ) ) ;
#233 = DIRECTION ( 'NONE',  ( 0.0000000000000000000, 0.0000000000000000000, 1.000000000000000000 ) ) ;
#234 = EDGE_LOOP ( 'NONE', ( #235, #14, #16, #115 ) ) ;
#235 = ORIENTED_EDGE ( 'NONE', *, *, #236, .T. ) ;
#236 = EDGE_CURVE ( 'NONE', #237, #238, #190, .T. ) ;
#237 = VERTEX_POINT ( 'NONE', #182 ) ;
#238 = VERTEX_POINT ( 'NONE', #105 ) ;
#239 = ORIENTED_EDGE ( 'NONE', *, *, #240, .F. ) ;
#240 = EDGE_CURVE ( 'NONE', #13, #23, #104, .T. ) ;
#241 = ADVANCED_FACE ( 'NONE', ( #100 ), #99, .F. ) ;
#242 = EDGE_LOOP ( 'NONE', ( #243, #244, #252, #255 ) ) ;
#243 = ORIENTED_EDGE ( 'NONE', *, *, #12, .F. ) ;
#244 = ORIENTED_EDGE ( 'NONE', *, *, #250, .T. ) ;
#245 = MANIFOLD_SOLID_BREP ( 'NONE', #5 ) ;
#246 = ADVANCED_FACE ( 'NONE', ( #98 ), #93, .T. ) ;
#247 = EDGE_LOOP ( 'NONE', ( #113, #201, #25, #28 ) ) ;
#248 = EDGE_LOOP ( 'NONE', ( #249, #3, #2, #9 ) ) ;
#249 = ORIENTED_EDGE ( 'NONE', *, *, #19, .F. ) ;
#250 = EDGE_CURVE ( 'NONE', #13, #251, #209, .T. ) ;
#251 = VERTEX_POINT ( 'NONE', #205 ) ;
#252 = ORIENTED_EDGE ( 'NONE', *, *, #253, .T. ) ;
#253 = EDGE_CURVE ( 'NONE', #251, #254, #204, .T. ) ;
#254 = VERTEX_POINT ( 'NONE', #231 ) ;
#255 = ORIENTED_EDGE ( 'NONE', *, *, #256, .F. ) ;
#256 = EDGE_CURVE ( 'NONE', #17, #254, #230, .T. ) ;
#257 = ADVANCED_FACE ( 'NONE', ( #226 ), #295, .T. ) ;
#258 = PRODUCT_DEFINITION_SHAPE ( 'NONE', 'NONE',  #341 ) ;
#259 = PRODUCT_RELATED_PRODUCT_CATEGORY ( 'detail', '', ( #327 ) ) ;
#260 = CC_DESIGN_SECURITY_CLASSIFICATION ( #281, ( #302 ) ) ;
#261 = CC_DESIGN_APPROVAL ( #269, ( #281 ) ) ;
#262 = APPROVAL_DATE_TIME ( #263, #269 ) ;
#263 = DATE_AND_TIME ( #264, #265 ) ;
#264 = CALENDAR_DATE ( 2007, 16, 11 ) ;
#265 = LOCAL_TIME ( 3, 32, 39.00000000000000000, #266 ) ;
#266 = COORDINATED_UNIVERSAL_TIME_OFFSET ( 5, 0, .BEHIND. ) ;
#267 = APPROVAL_PERSON_ORGANIZATION ( #271, #269, #268 ) ;
#268 = APPROVAL_ROLE ( '' ) ;
#269 = APPROVAL ( #270, 'UNSPECIFIED' ) ;
#270 = APPROVAL_STATUS ( 'not_yet_approved' ) ;
#271 = PERSON_AND_ORGANIZATION ( #326, #348 ) ;
#272 = CC_DESIGN_DATE_AND_TIME_ASSIGNMENT ( #274, #273, ( #281 ) ) ;
#273 = DATE_TIME_ROLE ( 'classification_date' ) ;
#274 = DATE_AND_TIME ( #275, #276 ) ;
#275 = CALENDAR_DATE ( 2007, 16, 11 ) ;
#276 = LOCAL_TIME ( 3, 32, 39.00000000000000000, #277 ) ;
#277 = COORDINATED_UNIVERSAL_TIME_OFFSET ( 5, 0, .BEHIND. ) ;
#278 = CC_DESIGN_PERSON_AND_ORGANIZATION_ASSIGNMENT ( #280, #279, ( #281 ) ) ;
#279 = PERSON_AND_ORGANIZATION_ROLE ( 'classification_officer' ) ;
#280 = PERSON_AND_ORGANIZATION ( #326, #348 ) ;
#281 = SECURITY_CLASSIFICATION ( '', '', #282 ) ;
#282 = SECURITY_CLASSIFICATION_LEVEL ( 'unclassified' ) ;
#283 = CC_DESIGN_PERSON_AND_ORGANIZATION_ASSIGNMENT ( #285, #284, ( #302 ) ) ;
#284 = PERSON_AND_ORGANIZATION_ROLE ( 'design_supplier' ) ;
#285 = PERSON_AND_ORGANIZATION ( #326, #348 ) ;
#286 = CC_DESIGN_PERSON_AND_ORGANIZATION_ASSIGNMENT ( #288, #287, ( #302 ) ) ;
#287 = PERSON_AND_ORGANIZATION_ROLE ( 'creator' ) ;
#288 = PERSON_AND_ORGANIZATION ( #326, #348 ) ;
#289 = CC_DESIGN_APPROVAL ( #299, ( #302 ) ) ;
#290 = APPROVAL_DATE_TIME ( #291, #299 ) ;
#291 = DATE_AND_TIME ( #292, #293 ) ;
#292 = CALENDAR_DATE ( 2007, 16, 11 ) ;
#293 = LOCAL_TIME ( 3, 32, 39.00000000000000000, #296 ) ;
#294 = AXIS2_PLACEMENT_3D ( 'NONE', #349, #325, #324 ) ;
#295 = CYLINDRICAL_SURFACE ( 'NONE', #294, 8.000000000000000000 ) ;
#296 = COORDINATED_UNIVERSAL_TIME_OFFSET ( 5, 0, .BEHIND. ) ;
#297 = APPROVAL_PERSON_ORGANIZATION ( #301, #299, #298 ) ;
#298 = APPROVAL_ROLE ( '' ) ;
#299 = APPROVAL ( #300, 'UNSPECIFIED' ) ;
#300 = APPROVAL_STATUS ( 'not_yet_approved' ) ;
#301 = PERSON_AND_ORGANIZATION ( #326, #348 ) ;
#302 = PRODUCT_DEFINITION_FORMATION_WITH_SPECIFIED_SOURCE ( 'ANY', '', #327, .NOT_KNOWN. ) ;
#303 = CC_DESIGN_DATE_AND_TIME_ASSIGNMENT ( #305, #304, ( #341 ) ) ;
#304 = DATE_TIME_ROLE ( 'creation_date' ) ;
#305 = DATE_AND_TIME ( #306, #307 ) ;
#306 = CALENDAR_DATE ( 2007, 16, 11 ) ;
#307 = LOCAL_TIME ( 3, 32, 39.00000000000000000, #308 ) ;
#308 = COORDINATED_UNIVERSAL_TIME_OFFSET ( 5, 0, .BEHIND. ) ;
#309 = CC_DESIGN_PERSON_AND_ORGANIZATION_ASSIGNMENT ( #311, #310, ( #341 ) ) ;
#310 = PERSON_AND_ORGANIZATION_ROLE ( 'creator' ) ;
#311 = PERSON_AND_ORGANIZATION ( #326, #348 ) ;
#312 = CARTESIAN_POINT ( 'NONE',  ( 0.0000000000000000000, 0.0000000000000000000, 0.0000000000000000000 ) ) ;
#313 = AXIS2_PLACEMENT_3D ( 'NONE', #312, #315, #314 ) ;
#314 = DIRECTION ( 'NONE',  ( 1.000000000000000000, 0.0000000000000000000, 0.0000000000000000000 ) ) ;
#315 = DIRECTION ( 'NONE',  ( 0.0000000000000000000, 0.0000000000000000000, 1.000000000000000000 ) ) ;
#316 = APPLICATION_CONTEXT ( 'configuration controlled 3d designs of mechanical parts and assemblies' ) ;
#317 = SHAPE_DEFINITION_REPRESENTATION ( #258, #318 ) ;
#318 = ADVANCED_BREP_SHAPE_REPRESENTATION ( '60600-21116332367054', ( #245, #313 ), #319 ) ;
#319 =( GEOMETRIC_REPRESENTATION_CONTEXT ( 3 ) GLOBAL_UNCERTAINTY_ASSIGNED_CONTEXT ( ( #320 ) ) GLOBAL_UNIT_ASSIGNED_CONTEXT ( ( #323, #322, #321 ) ) REPRESENTATION_CONTEXT ( 'NONE', 'WORKASPACE' ) );
#320 = UNCERTAINTY_MEASURE_WITH_UNIT (LENGTH_MEASURE( 1.000000000000000100E-005 ), #323, 'distance_accuracy_value', 'NONE');
#321 =( NAMED_UNIT ( * ) SI_UNIT ( $, .STERADIAN. ) SOLID_ANGLE_UNIT ( ) );
#322 =( NAMED_UNIT ( * ) PLANE_ANGLE_UNIT ( ) SI_UNIT ( $, .RADIAN. ) );
#323 =( LENGTH_UNIT ( ) NAMED_UNIT ( * ) SI_UNIT ( .MILLI., .METRE. ) );
#324 = DIRECTION ( 'NONE',  ( 1.000000000000000000, 0.0000000000000000000, 0.0000000000000000000 ) ) ;
#325 = DIRECTION ( 'NONE',  ( 0.0000000000000000000, 0.0000000000000000000, 1.000000000000000000 ) ) ;
#326 = PERSON ( 'UNSPECIFIED', 'UNSPECIFIED', 'UNSPECIFIED', ('UNSPECIFIED'), ('UNSPECIFIED'), ('UNSPECIFIED') ) ;
#327 = PRODUCT ( '60600-21116332367054', '60600-21116332367054', '', ( #328 ) ) ;
#328 = MECHANICAL_CONTEXT ( 'NONE', #316, 'mechanical' ) ;
#329 = APPLICATION_PROTOCOL_DEFINITION ( 'international standard', 'config_control_design', 1994, #316 ) ;
#330 = CC_DESIGN_APPROVAL ( #338, ( #341 ) ) ;
#331 = APPROVAL_DATE_TIME ( #332, #338 ) ;
#332 = DATE_AND_TIME ( #333, #334 ) ;
#333 = CALENDAR_DATE ( 2007, 16, 11 ) ;
#334 = LOCAL_TIME ( 3, 32, 39.00000000000000000, #335 ) ;
#335 = COORDINATED_UNIVERSAL_TIME_OFFSET ( 5, 0, .BEHIND. ) ;
#336 = APPROVAL_PERSON_ORGANIZATION ( #340, #338, #337 ) ;
#337 = APPROVAL_ROLE ( '' ) ;
#338 = APPROVAL ( #339, 'UNSPECIFIED' ) ;
#339 = APPROVAL_STATUS ( 'not_yet_approved' ) ;
#340 = PERSON_AND_ORGANIZATION ( #326, #348 ) ;
#341 = PRODUCT_DEFINITION ( 'UNKNOWN', '', #302, #342 ) ;
#342 = DESIGN_CONTEXT ( 'detailed design', #344, 'design' ) ;
#343 = APPLICATION_PROTOCOL_DEFINITION ( 'international standard', 'config_control_design', 1994, #344 ) ;
#344 = APPLICATION_CONTEXT ( 'configuration controlled 3d designs of mechanical parts and assemblies' ) ;
#345 = CC_DESIGN_PERSON_AND_ORGANIZATION_ASSIGNMENT ( #347, #346, ( #327 ) ) ;
#346 = PERSON_AND_ORGANIZATION_ROLE ( 'design_owner' ) ;
#347 = PERSON_AND_ORGANIZATION ( #326, #348 ) ;
#348 = ORGANIZATION ( 'UNSPECIFIED', 'UNSPECIFIED', '' ) ;
#349 = CARTESIAN_POINT ( 'NONE',  ( 0.0000000000000000000, 0.0000000000000000000, -6.000000000000000000 ) ) ;
ENDSEC;
END-ISO-10303-21;
