ISO-10303-21;
HEADER;
FILE_DESCRIPTION (( 'STEP AP203' ),
    '1' );
FILE_NAME ('60600-2121155577055.step',
    '2008-12-11T10:05:59',
    ( 'SysAdmin' ),
    ( 'SolidWorks' ),
    'SwSTEP 2.0',
    'SolidWorks 2009',
    '' );
FILE_SCHEMA (( 'CONFIG_CONTROL_DESIGN' ));
ENDSEC;

DATA;
#1 = DIRECTION ( 'NONE',  ( 1.000000000000000000, 0.0000000000000000000, 0.0000000000000000000 ) ) ;
#2 = VERTEX_POINT ( 'NONE', #58 ) ;
#3 = ADVANCED_FACE ( 'NONE', ( #57 ), #56, .F. ) ;
#4 = EDGE_LOOP ( 'NONE', ( #5, #12, #124, #127 ) ) ;
#5 = ORIENTED_EDGE ( 'NONE', *, *, #9, .T. ) ;
#6 = VERTEX_POINT ( 'NONE', #55 ) ;
#7 = ORIENTED_EDGE ( 'NONE', *, *, #8, .F. ) ;
#8 = EDGE_CURVE ( 'NONE', #64, #6, #50, .T. ) ;
#9 = EDGE_CURVE ( 'NONE', #10, #11, #46, .T. ) ;
#10 = VERTEX_POINT ( 'NONE', #41 ) ;
#11 = VERTEX_POINT ( 'NONE', #117 ) ;
#12 = ORIENTED_EDGE ( 'NONE', *, *, #23, .T. ) ;
#13 = EDGE_CURVE ( 'NONE', #10, #126, #116, .T. ) ;
#14 = ADVANCED_FACE ( 'NONE', ( #112 ), #111, .F. ) ;
#15 = ORIENTED_EDGE ( 'NONE', *, *, #9, .F. ) ;
#16 = ORIENTED_EDGE ( 'NONE', *, *, #17, .T. ) ;
#17 = EDGE_CURVE ( 'NONE', #10, #18, #106, .T. ) ;
#18 = VERTEX_POINT ( 'NONE', #102 ) ;
#19 = VERTEX_POINT ( 'NONE', #101 ) ;
#20 = ORIENTED_EDGE ( 'NONE', *, *, #21, .F. ) ;
#21 = EDGE_CURVE ( 'NONE', #19, #18, #100, .T. ) ;
#22 = EDGE_LOOP ( 'NONE', ( #62, #145, #65, #7 ) ) ;
#23 = EDGE_CURVE ( 'NONE', #11, #24, #95, .T. ) ;
#24 = VERTEX_POINT ( 'NONE', #91 ) ;
#25 = ORIENTED_EDGE ( 'NONE', *, *, #26, .T. ) ;
#26 = EDGE_CURVE ( 'NONE', #35, #34, #90, .T. ) ;
#27 = ORIENTED_EDGE ( 'NONE', *, *, #61, .T. ) ;
#28 = MANIFOLD_SOLID_BREP ( 'NONE', #71 ) ;
#29 = VERTEX_POINT ( 'NONE', #192 ) ;
#30 = ADVANCED_FACE ( 'NONE', ( #148 ), #147, .T. ) ;
#31 = EDGE_LOOP ( 'NONE', ( #32, #36, #59, #60 ) ) ;
#32 = ORIENTED_EDGE ( 'NONE', *, *, #33, .T. ) ;
#33 = EDGE_CURVE ( 'NONE', #34, #35, #150, .T. ) ;
#34 = VERTEX_POINT ( 'NONE', #187 ) ;
#35 = VERTEX_POINT ( 'NONE', #186 ) ;
#36 = ORIENTED_EDGE ( 'NONE', *, *, #37, .T. ) ;
#37 = EDGE_CURVE ( 'NONE', #35, #6, #185, .T. ) ;
#38 = ADVANCED_FACE ( 'NONE', ( #181 ), #169, .T. ) ;
#39 = EDGE_LOOP ( 'NONE', ( #40, #25, #27, #129 ) ) ;
#40 = ORIENTED_EDGE ( 'NONE', *, *, #37, .F. ) ;
#41 = CARTESIAN_POINT ( 'NONE',  ( -2.149999999999999900, 4.224891920687201600E-016, -2.599999999999990300 ) ) ;
#42 = DIRECTION ( 'NONE',  ( 1.000000000000000000, 0.0000000000000000000, 0.0000000000000000000 ) ) ;
#43 = DIRECTION ( 'NONE',  ( -0.0000000000000000000, -0.0000000000000000000, 1.000000000000000000 ) ) ;
#44 = CARTESIAN_POINT ( 'NONE',  ( 0.0000000000000000000, 0.0000000000000000000, -2.599999999999990300 ) ) ;
#45 = AXIS2_PLACEMENT_3D ( 'NONE', #44, #43, #42 ) ;
#46 = CIRCLE ( 'NONE', #45, 2.149999999999999900 ) ;
#47 = DIRECTION ( 'NONE',  ( -0.7071067811865469100, 0.0000000000000000000, -0.7071067811865482400 ) ) ;
#48 = VECTOR ( 'NONE', #47, 999.9999999999998900 ) ;
#49 = CARTESIAN_POINT ( 'NONE',  ( -5.500000000000000900, 0.0000000000000000000, 0.0000000000000000000 ) ) ;
#50 = LINE ( 'NONE', #49, #48 ) ;
#51 = DIRECTION ( 'NONE',  ( -1.000000000000000000, 0.0000000000000000000, 0.0000000000000000000 ) ) ;
#52 = DIRECTION ( 'NONE',  ( -0.0000000000000000000, -0.0000000000000000000, -1.000000000000000000 ) ) ;
#53 = CARTESIAN_POINT ( 'NONE',  ( 0.0000000000000000000, 0.0000000000000000000, 0.001000000000000132700 ) ) ;
#54 = AXIS2_PLACEMENT_3D ( 'NONE', #53, #52, #51 ) ;
#55 = CARTESIAN_POINT ( 'NONE',  ( -6.000000000000000900, 7.347638122934264500E-016, -0.5000000000000013300 ) ) ;
#56 = CYLINDRICAL_SURFACE ( 'NONE', #54, 2.149999999999999900 ) ;
#57 = FACE_OUTER_BOUND ( 'NONE', #4, .T. ) ;
#58 = CARTESIAN_POINT ( 'NONE',  ( 6.000000000000000900, 0.0000000000000000000, -0.5000000000000013300 ) ) ;
#59 = ORIENTED_EDGE ( 'NONE', *, *, #118, .T. ) ;
#60 = ORIENTED_EDGE ( 'NONE', *, *, #61, .F. ) ;
#61 = EDGE_CURVE ( 'NONE', #34, #2, #164, .T. ) ;
#62 = ORIENTED_EDGE ( 'NONE', *, *, #63, .F. ) ;
#63 = EDGE_CURVE ( 'NONE', #29, #64, #160, .T. ) ;
#64 = VERTEX_POINT ( 'NONE', #155 ) ;
#65 = ORIENTED_EDGE ( 'NONE', *, *, #118, .F. ) ;
#66 = ORIENTED_EDGE ( 'NONE', *, *, #13, .T. ) ;
#67 = ORIENTED_EDGE ( 'NONE', *, *, #146, .F. ) ;
#68 = ORIENTED_EDGE ( 'NONE', *, *, #142, .F. ) ;
#69 = ORIENTED_EDGE ( 'NONE', *, *, #8, .T. ) ;
#70 = ORIENTED_EDGE ( 'NONE', *, *, #130, .F. ) ;
#71 = CLOSED_SHELL ( 'NONE', ( #119, #3, #14, #30, #38, #131, #140, #85, #82, #73 ) ) ;
#72 = ORIENTED_EDGE ( 'NONE', *, *, #134, .T. ) ;
#73 = ADVANCED_FACE ( 'NONE', ( #154 ), #153, .T. ) ;
#74 = EDGE_LOOP ( 'NONE', ( #67, #68, #69, #70 ) ) ;
#75 = EDGE_CURVE ( 'NONE', #11, #10, #175, .T. ) ;
#76 = ORIENTED_EDGE ( 'NONE', *, *, #21, .T. ) ;
#77 = ORIENTED_EDGE ( 'NONE', *, *, #123, .T. ) ;
#78 = ORIENTED_EDGE ( 'NONE', *, *, #23, .F. ) ;
#79 = ORIENTED_EDGE ( 'NONE', *, *, #75, .T. ) ;
#80 = ORIENTED_EDGE ( 'NONE', *, *, #17, .F. ) ;
#81 = EDGE_LOOP ( 'NONE', ( #80, #86, #77, #76 ) ) ;
#82 = ADVANCED_FACE ( 'NONE', ( #170 ), #307, .F. ) ;
#83 = EDGE_LOOP ( 'NONE', ( #78, #79, #66, #72 ) ) ;
#84 = ORIENTED_EDGE ( 'NONE', *, *, #121, .F. ) ;
#85 = ADVANCED_FACE ( 'NONE', ( #344 ), #341, .F. ) ;
#86 = ORIENTED_EDGE ( 'NONE', *, *, #75, .F. ) ;
#87 = DIRECTION ( 'NONE',  ( 0.0000000000000000000, 0.0000000000000000000, 1.000000000000000000 ) ) ;
#88 = CARTESIAN_POINT ( 'NONE',  ( 0.0000000000000000000, 0.0000000000000000000, -6.000000000000000000 ) ) ;
#89 = AXIS2_PLACEMENT_3D ( 'NONE', #88, #87, #1 ) ;
#90 = CIRCLE ( 'NONE', #89, 6.000000000000000900 ) ;
#91 = CARTESIAN_POINT ( 'NONE',  ( 2.149999999999999900, 2.632903660718110300E-016, -6.000000000000000000 ) ) ;
#92 = DIRECTION ( 'NONE',  ( -0.0000000000000000000, -0.0000000000000000000, -1.000000000000000000 ) ) ;
#93 = VECTOR ( 'NONE', #92, 1000.000000000000000 ) ;
#94 = CARTESIAN_POINT ( 'NONE',  ( 2.149999999999999900, 2.632903660718110300E-016, 0.001000000000000132700 ) ) ;
#95 = LINE ( 'NONE', #94, #93 ) ;
#96 = DIRECTION ( 'NONE',  ( 1.000000000000000000, 0.0000000000000000000, 0.0000000000000000000 ) ) ;
#97 = DIRECTION ( 'NONE',  ( 0.0000000000000000000, 0.0000000000000000000, 1.000000000000000000 ) ) ;
#98 = CARTESIAN_POINT ( 'NONE',  ( 0.0000000000000000000, 0.0000000000000000000, 0.0000000000000000000 ) ) ;
#99 = AXIS2_PLACEMENT_3D ( 'NONE', #98, #97, #96 ) ;
#100 = CIRCLE ( 'NONE', #99, 4.750000000000000000 ) ;
#101 = CARTESIAN_POINT ( 'NONE',  ( 4.750000000000000000, 0.0000000000000000000, 0.0000000000000000000 ) ) ;
#102 = CARTESIAN_POINT ( 'NONE',  ( -4.750000000000000000, 5.816880180656292000E-016, 0.0000000000000000000 ) ) ;
#103 = DIRECTION ( 'NONE',  ( -0.7071067811865489100, 8.659274570719371400E-017, 0.7071067811865462400 ) ) ;
#104 = VECTOR ( 'NONE', #103, 999.9999999999998900 ) ;
#105 = CARTESIAN_POINT ( 'NONE',  ( -4.750000000000000000, 5.816880180656292000E-016, 0.0000000000000000000 ) ) ;
#106 = LINE ( 'NONE', #105, #104 ) ;
#107 = DIRECTION ( 'NONE',  ( 1.000000000000000000, 0.0000000000000000000, 0.0000000000000000000 ) ) ;
#108 = DIRECTION ( 'NONE',  ( -0.0000000000000000000, -0.0000000000000000000, 1.000000000000000000 ) ) ;
#109 = AXIS2_PLACEMENT_3D ( 'NONE', #110, #108, #107 ) ;
#110 = CARTESIAN_POINT ( 'NONE',  ( 0.0000000000000000000, 0.0000000000000000000, 0.0000000000000000000 ) ) ;
#111 = CONICAL_SURFACE ( 'NONE', #109, 4.750000000000000000, 0.7853981633974501700 ) ;
#112 = FACE_OUTER_BOUND ( 'NONE', #128, .T. ) ;
#113 = DIRECTION ( 'NONE',  ( -0.0000000000000000000, -0.0000000000000000000, -1.000000000000000000 ) ) ;
#114 = VECTOR ( 'NONE', #113, 1000.000000000000000 ) ;
#115 = CARTESIAN_POINT ( 'NONE',  ( -2.149999999999999900, 0.0000000000000000000, 0.001000000000000132700 ) ) ;
#116 = LINE ( 'NONE', #115, #114 ) ;
#117 = CARTESIAN_POINT ( 'NONE',  ( 2.149999999999999900, 0.0000000000000000000, -2.599999999999990300 ) ) ;
#118 = EDGE_CURVE ( 'NONE', #6, #2, #239, .T. ) ;
#119 = ADVANCED_FACE ( 'NONE', ( #235 ), #315, .T. ) ;
#120 = ORIENTED_EDGE ( 'NONE', *, *, #121, .T. ) ;
#121 = EDGE_CURVE ( 'NONE', #18, #19, #349, .T. ) ;
#122 = ORIENTED_EDGE ( 'NONE', *, *, #123, .F. ) ;
#123 = EDGE_CURVE ( 'NONE', #11, #19, #234, .T. ) ;
#124 = ORIENTED_EDGE ( 'NONE', *, *, #125, .T. ) ;
#125 = EDGE_CURVE ( 'NONE', #24, #126, #230, .T. ) ;
#126 = VERTEX_POINT ( 'NONE', #248 ) ;
#127 = ORIENTED_EDGE ( 'NONE', *, *, #13, .F. ) ;
#128 = EDGE_LOOP ( 'NONE', ( #15, #16, #120, #122 ) ) ;
#129 = ORIENTED_EDGE ( 'NONE', *, *, #130, .T. ) ;
#130 = EDGE_CURVE ( 'NONE', #2, #6, #247, .T. ) ;
#131 = ADVANCED_FACE ( 'NONE', ( #242, #241 ), #339, .F. ) ;
#132 = EDGE_LOOP ( 'NONE', ( #133, #135 ) ) ;
#133 = ORIENTED_EDGE ( 'NONE', *, *, #134, .F. ) ;
#134 = EDGE_CURVE ( 'NONE', #126, #24, #337, .T. ) ;
#135 = ORIENTED_EDGE ( 'NONE', *, *, #125, .F. ) ;
#136 = EDGE_LOOP ( 'NONE', ( #137, #138 ) ) ;
#137 = ORIENTED_EDGE ( 'NONE', *, *, #33, .F. ) ;
#138 = ORIENTED_EDGE ( 'NONE', *, *, #26, .F. ) ;
#139 = EDGE_LOOP ( 'NONE', ( #141, #143 ) ) ;
#140 = ADVANCED_FACE ( 'NONE', ( #329, #328 ), #327, .T. ) ;
#141 = ORIENTED_EDGE ( 'NONE', *, *, #142, .T. ) ;
#142 = EDGE_CURVE ( 'NONE', #64, #29, #325, .T. ) ;
#143 = ORIENTED_EDGE ( 'NONE', *, *, #63, .T. ) ;
#144 = EDGE_LOOP ( 'NONE', ( #20, #84 ) ) ;
#145 = ORIENTED_EDGE ( 'NONE', *, *, #146, .T. ) ;
#146 = EDGE_CURVE ( 'NONE', #29, #2, #317, .T. ) ;
#147 = CYLINDRICAL_SURFACE ( 'NONE', #151, 6.000000000000000900 ) ;
#148 = FACE_OUTER_BOUND ( 'NONE', #31, .T. ) ;
#149 = DIRECTION ( 'NONE',  ( 1.000000000000000000, 0.0000000000000000000, 0.0000000000000000000 ) ) ;
#150 = CIRCLE ( 'NONE', #191, 6.000000000000000900 ) ;
#151 = AXIS2_PLACEMENT_3D ( 'NONE', #179, #180, #149 ) ;
#152 = CARTESIAN_POINT ( 'NONE',  ( 0.0000000000000000000, 0.0000000000000000000, 0.0000000000000000000 ) ) ;
#153 = CONICAL_SURFACE ( 'NONE', #178, 5.500000000000000900, 0.7853981633974473900 ) ;
#154 = FACE_OUTER_BOUND ( 'NONE', #74, .T. ) ;
#155 = CARTESIAN_POINT ( 'NONE',  ( -5.500000000000000900, 0.0000000000000000000, 0.0000000000000000000 ) ) ;
#156 = DIRECTION ( 'NONE',  ( 1.000000000000000000, 0.0000000000000000000, 0.0000000000000000000 ) ) ;
#157 = DIRECTION ( 'NONE',  ( 0.0000000000000000000, 0.0000000000000000000, 1.000000000000000000 ) ) ;
#158 = CARTESIAN_POINT ( 'NONE',  ( 0.0000000000000000000, 0.0000000000000000000, 0.0000000000000000000 ) ) ;
#159 = AXIS2_PLACEMENT_3D ( 'NONE', #158, #157, #156 ) ;
#160 = CIRCLE ( 'NONE', #159, 5.500000000000000900 ) ;
#161 = DIRECTION ( 'NONE',  ( 0.0000000000000000000, 0.0000000000000000000, 1.000000000000000000 ) ) ;
#162 = VECTOR ( 'NONE', #161, 1000.000000000000000 ) ;
#163 = CARTESIAN_POINT ( 'NONE',  ( 6.000000000000000900, 0.0000000000000000000, -6.000000000000000000 ) ) ;
#164 = LINE ( 'NONE', #163, #162 ) ;
#165 = DIRECTION ( 'NONE',  ( 1.000000000000000000, 0.0000000000000000000, 0.0000000000000000000 ) ) ;
#166 = DIRECTION ( 'NONE',  ( 0.0000000000000000000, 0.0000000000000000000, 1.000000000000000000 ) ) ;
#167 = CARTESIAN_POINT ( 'NONE',  ( 0.0000000000000000000, 0.0000000000000000000, -6.000000000000000000 ) ) ;
#168 = AXIS2_PLACEMENT_3D ( 'NONE', #167, #166, #165 ) ;
#169 = CYLINDRICAL_SURFACE ( 'NONE', #168, 6.000000000000000900 ) ;
#170 = FACE_OUTER_BOUND ( 'NONE', #83, .T. ) ;
#171 = DIRECTION ( 'NONE',  ( 1.000000000000000000, 0.0000000000000000000, 0.0000000000000000000 ) ) ;
#172 = DIRECTION ( 'NONE',  ( -0.0000000000000000000, -0.0000000000000000000, 1.000000000000000000 ) ) ;
#173 = CARTESIAN_POINT ( 'NONE',  ( 0.0000000000000000000, 0.0000000000000000000, -2.599999999999990300 ) ) ;
#174 = AXIS2_PLACEMENT_3D ( 'NONE', #173, #172, #171 ) ;
#175 = CIRCLE ( 'NONE', #174, 2.149999999999999900 ) ;
#176 = DIRECTION ( 'NONE',  ( -1.000000000000000000, 0.0000000000000000000, 0.0000000000000000000 ) ) ;
#177 = DIRECTION ( 'NONE',  ( 0.0000000000000000000, 0.0000000000000000000, -1.000000000000000000 ) ) ;
#178 = AXIS2_PLACEMENT_3D ( 'NONE', #152, #177, #176 ) ;
#179 = CARTESIAN_POINT ( 'NONE',  ( 0.0000000000000000000, 0.0000000000000000000, -6.000000000000000000 ) ) ;
#180 = DIRECTION ( 'NONE',  ( 0.0000000000000000000, 0.0000000000000000000, 1.000000000000000000 ) ) ;
#181 = FACE_OUTER_BOUND ( 'NONE', #39, .T. ) ;
#182 = DIRECTION ( 'NONE',  ( 0.0000000000000000000, 0.0000000000000000000, 1.000000000000000000 ) ) ;
#183 = VECTOR ( 'NONE', #182, 1000.000000000000000 ) ;
#184 = CARTESIAN_POINT ( 'NONE',  ( -6.000000000000000900, 7.347638122934264500E-016, -6.000000000000000000 ) ) ;
#185 = LINE ( 'NONE', #184, #183 ) ;
#186 = CARTESIAN_POINT ( 'NONE',  ( -6.000000000000000900, 7.347638122934264500E-016, -6.000000000000000000 ) ) ;
#187 = CARTESIAN_POINT ( 'NONE',  ( 6.000000000000000900, 0.0000000000000000000, -6.000000000000000000 ) ) ;
#188 = DIRECTION ( 'NONE',  ( 1.000000000000000000, 0.0000000000000000000, 0.0000000000000000000 ) ) ;
#189 = DIRECTION ( 'NONE',  ( 0.0000000000000000000, 0.0000000000000000000, 1.000000000000000000 ) ) ;
#190 = CARTESIAN_POINT ( 'NONE',  ( 0.0000000000000000000, 0.0000000000000000000, -6.000000000000000000 ) ) ;
#191 = AXIS2_PLACEMENT_3D ( 'NONE', #190, #189, #188 ) ;
#192 = CARTESIAN_POINT ( 'NONE',  ( 5.500000000000000900, 7.041486534478670200E-016, 0.0000000000000000000 ) ) ;
#193 = APPLICATION_CONTEXT ( 'configuration controlled 3d designs of mechanical parts and assemblies' ) ;
#194 = ADVANCED_BREP_SHAPE_REPRESENTATION ( '60600-2121155577055', ( #28, #200 ), #195 ) ;
#195 =( GEOMETRIC_REPRESENTATION_CONTEXT ( 3 ) GLOBAL_UNCERTAINTY_ASSIGNED_CONTEXT ( ( #196 ) ) GLOBAL_UNIT_ASSIGNED_CONTEXT ( ( #199, #198, #197 ) ) REPRESENTATION_CONTEXT ( 'NONE', 'WORKASPACE' ) );
#196 = UNCERTAINTY_MEASURE_WITH_UNIT (LENGTH_MEASURE( 1.000000000000000100E-005 ), #199, 'distance_accuracy_value', 'NONE');
#197 =( NAMED_UNIT ( * ) SI_UNIT ( $, .STERADIAN. ) SOLID_ANGLE_UNIT ( ) );
#198 =( NAMED_UNIT ( * ) PLANE_ANGLE_UNIT ( ) SI_UNIT ( $, .RADIAN. ) );
#199 =( LENGTH_UNIT ( ) NAMED_UNIT ( * ) SI_UNIT ( .MILLI., .METRE. ) );
#200 = AXIS2_PLACEMENT_3D ( 'NONE', #296, #299, #298 ) ;
#201 = DIRECTION ( 'NONE',  ( 0.7071067811865469100, 8.659274570719350500E-017, -0.7071067811865482400 ) ) ;
#202 = VECTOR ( 'NONE', #201, 999.9999999999998900 ) ;
#203 = CC_DESIGN_APPROVAL ( #211, ( #214 ) ) ;
#204 = APPROVAL_DATE_TIME ( #205, #211 ) ;
#205 = DATE_AND_TIME ( #206, #207 ) ;
#206 = CALENDAR_DATE ( 2008, 11, 12 ) ;
#207 = LOCAL_TIME ( 5, 5, 59.00000000000000000, #208 ) ;
#208 = COORDINATED_UNIVERSAL_TIME_OFFSET ( 5, 0, .BEHIND. ) ;
#209 = APPROVAL_PERSON_ORGANIZATION ( #213, #211, #210 ) ;
#210 = APPROVAL_ROLE ( '' ) ;
#211 = APPROVAL ( #212, 'UNSPECIFIED' ) ;
#212 = APPROVAL_STATUS ( 'not_yet_approved' ) ;
#213 = PERSON_AND_ORGANIZATION ( #222, #221 ) ;
#214 = PRODUCT_DEFINITION ( 'UNKNOWN', '', #285, #215 ) ;
#215 = DESIGN_CONTEXT ( 'detailed design', #217, 'design' ) ;
#216 = APPLICATION_PROTOCOL_DEFINITION ( 'international standard', 'config_control_design', 1994, #217 ) ;
#217 = APPLICATION_CONTEXT ( 'configuration controlled 3d designs of mechanical parts and assemblies' ) ;
#218 = CC_DESIGN_PERSON_AND_ORGANIZATION_ASSIGNMENT ( #220, #219, ( #223 ) ) ;
#219 = PERSON_AND_ORGANIZATION_ROLE ( 'design_owner' ) ;
#220 = PERSON_AND_ORGANIZATION ( #222, #221 ) ;
#221 = ORGANIZATION ( 'UNSPECIFIED', 'UNSPECIFIED', '' ) ;
#222 = PERSON ( 'UNSPECIFIED', 'UNSPECIFIED', 'UNSPECIFIED', ('UNSPECIFIED'), ('UNSPECIFIED'), ('UNSPECIFIED') ) ;
#223 = PRODUCT ( '60600-2121155577055', '60600-2121155577055', '', ( #224 ) ) ;
#224 = MECHANICAL_CONTEXT ( 'NONE', #193, 'mechanical' ) ;
#225 = APPLICATION_PROTOCOL_DEFINITION ( 'international standard', 'config_control_design', 1994, #193 ) ;
#226 = DIRECTION ( 'NONE',  ( -0.0000000000000000000, -0.0000000000000000000, -1.000000000000000000 ) ) ;
#227 = DIRECTION ( 'NONE',  ( 0.0000000000000000000, 0.0000000000000000000, -1.000000000000000000 ) ) ;
#228 = CARTESIAN_POINT ( 'NONE',  ( 0.0000000000000000000, 0.0000000000000000000, -6.000000000000000000 ) ) ;
#229 = AXIS2_PLACEMENT_3D ( 'NONE', #228, #227, #249 ) ;
#230 = CIRCLE ( 'NONE', #229, 2.149999999999999900 ) ;
#231 = DIRECTION ( 'NONE',  ( 0.7071067811865489100, 0.0000000000000000000, 0.7071067811865462400 ) ) ;
#232 = VECTOR ( 'NONE', #231, 999.9999999999998900 ) ;
#233 = CARTESIAN_POINT ( 'NONE',  ( 4.750000000000000000, 0.0000000000000000000, 0.0000000000000000000 ) ) ;
#234 = LINE ( 'NONE', #233, #232 ) ;
#235 = FACE_OUTER_BOUND ( 'NONE', #22, .T. ) ;
#236 = DIRECTION ( 'NONE',  ( 1.000000000000000000, 0.0000000000000000000, 0.0000000000000000000 ) ) ;
#237 = DIRECTION ( 'NONE',  ( 0.0000000000000000000, 0.0000000000000000000, -1.000000000000000000 ) ) ;
#238 = AXIS2_PLACEMENT_3D ( 'NONE', #308, #237, #236 ) ;
#239 = CIRCLE ( 'NONE', #238, 6.000000000000000900 ) ;
#240 = DIRECTION ( 'NONE',  ( 0.0000000000000000000, 0.0000000000000000000, -1.000000000000000000 ) ) ;
#241 = FACE_OUTER_BOUND ( 'NONE', #136, .T. ) ;
#242 = FACE_BOUND ( 'NONE', #132, .T. ) ;
#243 = DIRECTION ( 'NONE',  ( 1.000000000000000000, 0.0000000000000000000, 0.0000000000000000000 ) ) ;
#244 = DIRECTION ( 'NONE',  ( 0.0000000000000000000, 0.0000000000000000000, -1.000000000000000000 ) ) ;
#245 = CARTESIAN_POINT ( 'NONE',  ( 0.0000000000000000000, 0.0000000000000000000, -0.5000000000000013300 ) ) ;
#246 = AXIS2_PLACEMENT_3D ( 'NONE', #245, #244, #243 ) ;
#247 = CIRCLE ( 'NONE', #246, 6.000000000000000900 ) ;
#248 = CARTESIAN_POINT ( 'NONE',  ( -2.149999999999999900, 0.0000000000000000000, -6.000000000000000000 ) ) ;
#249 = DIRECTION ( 'NONE',  ( -1.000000000000000000, 0.0000000000000000000, 0.0000000000000000000 ) ) ;
#250 = LOCAL_TIME ( 5, 5, 59.00000000000000000, #251 ) ;
#251 = COORDINATED_UNIVERSAL_TIME_OFFSET ( 5, 0, .BEHIND. ) ;
#252 = APPROVAL_PERSON_ORGANIZATION ( #256, #254, #253 ) ;
#253 = APPROVAL_ROLE ( '' ) ;
#254 = APPROVAL ( #255, 'UNSPECIFIED' ) ;
#255 = APPROVAL_STATUS ( 'not_yet_approved' ) ;
#256 = PERSON_AND_ORGANIZATION ( #222, #221 ) ;
#257 = CC_DESIGN_DATE_AND_TIME_ASSIGNMENT ( #259, #258, ( #266 ) ) ;
#258 = DATE_TIME_ROLE ( 'classification_date' ) ;
#259 = DATE_AND_TIME ( #260, #261 ) ;
#260 = CALENDAR_DATE ( 2008, 11, 12 ) ;
#261 = LOCAL_TIME ( 5, 5, 59.00000000000000000, #262 ) ;
#262 = COORDINATED_UNIVERSAL_TIME_OFFSET ( 5, 0, .BEHIND. ) ;
#263 = CC_DESIGN_PERSON_AND_ORGANIZATION_ASSIGNMENT ( #265, #264, ( #266 ) ) ;
#264 = PERSON_AND_ORGANIZATION_ROLE ( 'classification_officer' ) ;
#265 = PERSON_AND_ORGANIZATION ( #222, #221 ) ;
#266 = SECURITY_CLASSIFICATION ( '', '', #267 ) ;
#267 = SECURITY_CLASSIFICATION_LEVEL ( 'unclassified' ) ;
#268 = CC_DESIGN_PERSON_AND_ORGANIZATION_ASSIGNMENT ( #270, #269, ( #285 ) ) ;
#269 = PERSON_AND_ORGANIZATION_ROLE ( 'design_supplier' ) ;
#270 = PERSON_AND_ORGANIZATION ( #222, #221 ) ;
#271 = CC_DESIGN_PERSON_AND_ORGANIZATION_ASSIGNMENT ( #273, #272, ( #285 ) ) ;
#272 = PERSON_AND_ORGANIZATION_ROLE ( 'creator' ) ;
#273 = PERSON_AND_ORGANIZATION ( #222, #221 ) ;
#274 = CC_DESIGN_APPROVAL ( #282, ( #285 ) ) ;
#275 = APPROVAL_DATE_TIME ( #276, #282 ) ;
#276 = DATE_AND_TIME ( #277, #278 ) ;
#277 = CALENDAR_DATE ( 2008, 11, 12 ) ;
#278 = LOCAL_TIME ( 5, 5, 59.00000000000000000, #279 ) ;
#279 = COORDINATED_UNIVERSAL_TIME_OFFSET ( 5, 0, .BEHIND. ) ;
#280 = APPROVAL_PERSON_ORGANIZATION ( #284, #282, #281 ) ;
#281 = APPROVAL_ROLE ( '' ) ;
#282 = APPROVAL ( #283, 'UNSPECIFIED' ) ;
#283 = APPROVAL_STATUS ( 'not_yet_approved' ) ;
#284 = PERSON_AND_ORGANIZATION ( #222, #221 ) ;
#285 = PRODUCT_DEFINITION_FORMATION_WITH_SPECIFIED_SOURCE ( 'ANY', '', #223, .NOT_KNOWN. ) ;
#286 = CC_DESIGN_DATE_AND_TIME_ASSIGNMENT ( #288, #287, ( #214 ) ) ;
#287 = DATE_TIME_ROLE ( 'creation_date' ) ;
#288 = DATE_AND_TIME ( #289, #290 ) ;
#289 = CALENDAR_DATE ( 2008, 11, 12 ) ;
#290 = LOCAL_TIME ( 5, 5, 59.00000000000000000, #291 ) ;
#291 = COORDINATED_UNIVERSAL_TIME_OFFSET ( 5, 0, .BEHIND. ) ;
#292 = CC_DESIGN_PERSON_AND_ORGANIZATION_ASSIGNMENT ( #294, #293, ( #214 ) ) ;
#293 = PERSON_AND_ORGANIZATION_ROLE ( 'creator' ) ;
#294 = PERSON_AND_ORGANIZATION ( #222, #221 ) ;
#295 = CARTESIAN_POINT ( 'NONE',  ( 0.0000000000000000000, 0.0000000000000000000, 0.001000000000000132700 ) ) ;
#296 = CARTESIAN_POINT ( 'NONE',  ( 0.0000000000000000000, 0.0000000000000000000, 0.0000000000000000000 ) ) ;
#297 = SHAPE_DEFINITION_REPRESENTATION ( #300, #194 ) ;
#298 = DIRECTION ( 'NONE',  ( 1.000000000000000000, 0.0000000000000000000, 0.0000000000000000000 ) ) ;
#299 = DIRECTION ( 'NONE',  ( 0.0000000000000000000, 0.0000000000000000000, 1.000000000000000000 ) ) ;
#300 = PRODUCT_DEFINITION_SHAPE ( 'NONE', 'NONE',  #214 ) ;
#301 = PRODUCT_RELATED_PRODUCT_CATEGORY ( 'detail', '', ( #223 ) ) ;
#302 = CC_DESIGN_SECURITY_CLASSIFICATION ( #266, ( #285 ) ) ;
#303 = CC_DESIGN_APPROVAL ( #254, ( #266 ) ) ;
#304 = APPROVAL_DATE_TIME ( #305, #254 ) ;
#305 = DATE_AND_TIME ( #306, #250 ) ;
#306 = CALENDAR_DATE ( 2008, 11, 12 ) ;
#307 = CYLINDRICAL_SURFACE ( 'NONE', #340, 2.149999999999999900 ) ;
#308 = CARTESIAN_POINT ( 'NONE',  ( 0.0000000000000000000, 0.0000000000000000000, -0.5000000000000013300 ) ) ;
#309 = DIRECTION ( 'NONE',  ( 1.000000000000000000, 0.0000000000000000000, 0.0000000000000000000 ) ) ;
#310 = DIRECTION ( 'NONE',  ( -0.0000000000000000000, -0.0000000000000000000, 1.000000000000000000 ) ) ;
#311 = DIRECTION ( 'NONE',  ( -1.000000000000000000, 0.0000000000000000000, 0.0000000000000000000 ) ) ;
#312 = DIRECTION ( 'NONE',  ( -1.000000000000000000, 0.0000000000000000000, 0.0000000000000000000 ) ) ;
#313 = AXIS2_PLACEMENT_3D ( 'NONE', #314, #240, #312 ) ;
#314 = CARTESIAN_POINT ( 'NONE',  ( 0.0000000000000000000, 0.0000000000000000000, 0.0000000000000000000 ) ) ;
#315 = CONICAL_SURFACE ( 'NONE', #313, 5.500000000000000900, 0.7853981633974473900 ) ;
#316 = CARTESIAN_POINT ( 'NONE',  ( 5.500000000000000900, 6.735334946023075900E-016, 0.0000000000000000000 ) ) ;
#317 = LINE ( 'NONE', #316, #202 ) ;
#318 = DIRECTION ( 'NONE',  ( 1.000000000000000000, 0.0000000000000000000, 0.0000000000000000000 ) ) ;
#319 = DIRECTION ( 'NONE',  ( 0.0000000000000000000, 0.0000000000000000000, 1.000000000000000000 ) ) ;
#320 = CARTESIAN_POINT ( 'NONE',  ( 0.0000000000000000000, 0.0000000000000000000, 0.0000000000000000000 ) ) ;
#321 = AXIS2_PLACEMENT_3D ( 'NONE', #320, #319, #318 ) ;
#322 = DIRECTION ( 'NONE',  ( 1.000000000000000000, 0.0000000000000000000, -0.0000000000000000000 ) ) ;
#323 = DIRECTION ( 'NONE',  ( 0.0000000000000000000, 0.0000000000000000000, 1.000000000000000000 ) ) ;
#324 = CARTESIAN_POINT ( 'NONE',  ( 0.0000000000000000000, 0.0000000000000000000, 0.0000000000000000000 ) ) ;
#325 = CIRCLE ( 'NONE', #321, 5.500000000000000900 ) ;
#326 = AXIS2_PLACEMENT_3D ( 'NONE', #324, #323, #322 ) ;
#327 = PLANE ( 'NONE',  #326 ) ;
#328 = FACE_BOUND ( 'NONE', #144, .T. ) ;
#329 = FACE_OUTER_BOUND ( 'NONE', #139, .T. ) ;
#330 = DIRECTION ( 'NONE',  ( -1.000000000000000000, 0.0000000000000000000, 0.0000000000000000000 ) ) ;
#331 = DIRECTION ( 'NONE',  ( 0.0000000000000000000, 0.0000000000000000000, -1.000000000000000000 ) ) ;
#332 = CARTESIAN_POINT ( 'NONE',  ( 0.0000000000000000000, 0.0000000000000000000, -6.000000000000000000 ) ) ;
#333 = AXIS2_PLACEMENT_3D ( 'NONE', #332, #331, #330 ) ;
#334 = DIRECTION ( 'NONE',  ( 1.000000000000000000, 0.0000000000000000000, -0.0000000000000000000 ) ) ;
#335 = DIRECTION ( 'NONE',  ( 0.0000000000000000000, 0.0000000000000000000, 1.000000000000000000 ) ) ;
#336 = CARTESIAN_POINT ( 'NONE',  ( 0.0000000000000000000, 0.0000000000000000000, -6.000000000000000000 ) ) ;
#337 = CIRCLE ( 'NONE', #333, 2.149999999999999900 ) ;
#338 = AXIS2_PLACEMENT_3D ( 'NONE', #336, #335, #334 ) ;
#339 = PLANE ( 'NONE',  #338 ) ;
#340 = AXIS2_PLACEMENT_3D ( 'NONE', #295, #226, #311 ) ;
#341 = CONICAL_SURFACE ( 'NONE', #343, 4.750000000000000000, 0.7853981633974501700 ) ;
#342 = CARTESIAN_POINT ( 'NONE',  ( 0.0000000000000000000, 0.0000000000000000000, 0.0000000000000000000 ) ) ;
#343 = AXIS2_PLACEMENT_3D ( 'NONE', #342, #310, #309 ) ;
#344 = FACE_OUTER_BOUND ( 'NONE', #81, .T. ) ;
#345 = DIRECTION ( 'NONE',  ( 1.000000000000000000, 0.0000000000000000000, 0.0000000000000000000 ) ) ;
#346 = DIRECTION ( 'NONE',  ( 0.0000000000000000000, 0.0000000000000000000, 1.000000000000000000 ) ) ;
#347 = CARTESIAN_POINT ( 'NONE',  ( 0.0000000000000000000, 0.0000000000000000000, 0.0000000000000000000 ) ) ;
#348 = AXIS2_PLACEMENT_3D ( 'NONE', #347, #346, #345 ) ;
#349 = CIRCLE ( 'NONE', #348, 4.750000000000000000 ) ;
ENDSEC;
END-ISO-10303-21;
