ISO-10303-21;
HEADER;
FILE_DESCRIPTION( ( '' ), '1' );
FILE_NAME( 'C:/Users/Bollwitte/Desktop/987/K0332.06020.stp', '2012-10-30T14:34:22', ( '' ), ( '' ), ' ', ' ', ' ' );
FILE_SCHEMA( ( 'CONFIG_CONTROL_DESIGN' ) );
ENDSEC;
DATA;
#1 = DESIGN_CONTEXT( '', #27, 'design' );
#2 = APPLICATION_PROTOCOL_DEFINITION( 'INTERNATIONAL STANDARD', 'config_control_design', 1994, #27 );
#3 = PRODUCT_CATEGORY_RELATIONSHIP( 'NONE', 'NONE', #28, #29 );
#4 = DATE_AND_TIME( #30, #31 );
#5 = DATE_TIME_ROLE( 'creation_date' );
#6 = DATE_TIME_ROLE( 'classification_date' );
#7 = PERSON_AND_ORGANIZATION_ROLE( 'creator' );
#8 = PERSON_AND_ORGANIZATION_ROLE( 'design_supplier' );
#9 = PERSON_AND_ORGANIZATION_ROLE( 'classification_officer' );
#10 = PERSON_AND_ORGANIZATION_ROLE( 'design_owner' );
#11 = APPROVAL_PERSON_ORGANIZATION( #32, #33, #34 );
#12 = APPROVAL_DATE_TIME( #4, #33 );
#13 = CC_DESIGN_APPROVAL( #33, ( #35, #36, #37 ) );
#14 = CC_DESIGN_DATE_AND_TIME_ASSIGNMENT( #4, #5, ( #37 ) );
#15 = CC_DESIGN_DATE_AND_TIME_ASSIGNMENT( #4, #6, ( #35 ) );
#16 = CC_DESIGN_PERSON_AND_ORGANIZATION_ASSIGNMENT( #32, #10, ( #38 ) );
#17 = CC_DESIGN_PERSON_AND_ORGANIZATION_ASSIGNMENT( #32, #7, ( #37 ) );
#18 = CC_DESIGN_PERSON_AND_ORGANIZATION_ASSIGNMENT( #32, #7, ( #36 ) );
#19 = CC_DESIGN_PERSON_AND_ORGANIZATION_ASSIGNMENT( #32, #8, ( #36 ) );
#20 = CC_DESIGN_SECURITY_CLASSIFICATION( #35, ( #36 ) );
#21 = CC_DESIGN_PERSON_AND_ORGANIZATION_ASSIGNMENT( #32, #9, ( #35 ) );
#22 = SHAPE_DEFINITION_REPRESENTATION( #39, #40 );
#23 =  ( GEOMETRIC_REPRESENTATION_CONTEXT( 3 )GLOBAL_UNCERTAINTY_ASSIGNED_CONTEXT( ( #43 ) )GLOBAL_UNIT_ASSIGNED_CONTEXT( ( #45, #46, #47 ) )REPRESENTATION_CONTEXT( 'NONE', 'WORKSPACE' ) );
#27 = APPLICATION_CONTEXT( 'CONFIGURATION CONTROLLED 3D DESIGNS OF MECHANICAL PARTS AND ASSEMBLIES' );
#28 = PRODUCT_CATEGORY( 'part', 'NONE' );
#29 = PRODUCT_RELATED_PRODUCT_CATEGORY( 'detail', ' ', ( #38 ) );
#30 = CALENDAR_DATE( 2012, 30, 9 );
#31 = LOCAL_TIME( 15, 34, 22.0000000000000, #49 );
#32 = PERSON_AND_ORGANIZATION( #50, #51 );
#33 = APPROVAL( #52, 'SOLID MODEL' );
#34 = APPROVAL_ROLE( 'APPROVED' );
#35 = SECURITY_CLASSIFICATION( '', '', #53 );
#36 = PRODUCT_DEFINITION_FORMATION_WITH_SPECIFIED_SOURCE( ' ', 'NONE', #38, .NOT_KNOWN. );
#37 = PRODUCT_DEFINITION( 'NONE', 'NONE', #36, #1 );
#38 = PRODUCT( '1', '1', 'PART-1-DESC', ( #54 ) );
#39 = PRODUCT_DEFINITION_SHAPE( 'NONE', 'NONE', #37 );
#40 = ADVANCED_BREP_SHAPE_REPRESENTATION( '1', ( #55, #56 ), #23 );
#43 = UNCERTAINTY_MEASURE_WITH_UNIT( LENGTH_MEASURE( 1.00000000000000E-006 ), #45, '', '' );
#45 =  ( CONVERSION_BASED_UNIT( 'MILLIMETRE', #59 )LENGTH_UNIT(  )NAMED_UNIT( #62 ) );
#46 =  ( NAMED_UNIT( #64 )PLANE_ANGLE_UNIT(  )SI_UNIT( $, .RADIAN. ) );
#47 =  ( NAMED_UNIT( #64 )SOLID_ANGLE_UNIT(  )SI_UNIT( $, .STERADIAN. ) );
#49 = COORDINATED_UNIVERSAL_TIME_OFFSET( 1, 0, .AHEAD. );
#50 = PERSON( '', 'UNSPECIFIED', $, $, $, $ );
#51 = ORGANIZATION( 'UNSPECIFIED', 'UNSPECIFIED', 'UNSPECIFIED' );
#52 = APPROVAL_STATUS( 'approved' );
#53 = SECURITY_CLASSIFICATION_LEVEL( 'unclassified' );
#54 = MECHANICAL_CONTEXT( '', #27, 'mechanical' );
#55 = MANIFOLD_SOLID_BREP( '1', #70 );
#56 = AXIS2_PLACEMENT_3D( '', #71, #72, #73 );
#59 = LENGTH_MEASURE_WITH_UNIT( LENGTH_MEASURE( 1.00000000000000 ), #74 );
#62 = DIMENSIONAL_EXPONENTS( 1.00000000000000, 0.000000000000000, 0.000000000000000, 0.000000000000000, 0.000000000000000, 0.000000000000000, 0.000000000000000 );
#64 = DIMENSIONAL_EXPONENTS( 0.000000000000000, 0.000000000000000, 0.000000000000000, 0.000000000000000, 0.000000000000000, 0.000000000000000, 0.000000000000000 );
#70 = CLOSED_SHELL( '', ( #75, #76, #77, #78, #79, #80, #81, #82 ) );
#71 = CARTESIAN_POINT( '', ( 0.000000000000000, 0.000000000000000, 0.000000000000000 ) );
#72 = DIRECTION( '', ( 0.000000000000000, 0.000000000000000, 1.00000000000000 ) );
#73 = DIRECTION( '', ( 1.00000000000000, 0.000000000000000, 0.000000000000000 ) );
#74 =  ( NAMED_UNIT( #62 )LENGTH_UNIT(  )SI_UNIT( .MILLI., .METRE. ) );
#75 = ADVANCED_FACE( '', ( #84 ), #85, .F. );
#76 = ADVANCED_FACE( '', ( #86 ), #87, .T. );
#77 = ADVANCED_FACE( '', ( #88 ), #89, .T. );
#78 = ADVANCED_FACE( '', ( #90 ), #91, .T. );
#79 = ADVANCED_FACE( '', ( #92 ), #93, .T. );
#80 = ADVANCED_FACE( '', ( #94 ), #95, .T. );
#81 = ADVANCED_FACE( '', ( #96, #97 ), #98, .T. );
#82 = ADVANCED_FACE( '', ( #99 ), #100, .F. );
#84 = FACE_OUTER_BOUND( '', #101, .T. );
#85 = CONICAL_SURFACE( '', #102, 0.500000000000000, 0.785398163397448 );
#86 = FACE_OUTER_BOUND( '', #103, .T. );
#87 = CYLINDRICAL_SURFACE( '', #104, 3.00000000000000 );
#88 = FACE_OUTER_BOUND( '', #105, .T. );
#89 = CONICAL_SURFACE( '', #106, 2.79792740578363, 0.523598775598300 );
#90 = FACE_OUTER_BOUND( '', #107, .T. );
#91 = PLANE( '', #108 );
#92 = FACE_OUTER_BOUND( '', #109, .T. );
#93 = CONICAL_SURFACE( '', #110, 2.79792740578363, 0.523598775598300 );
#94 = FACE_OUTER_BOUND( '', #111, .T. );
#95 = CYLINDRICAL_SURFACE( '', #112, 3.00000000000000 );
#96 = FACE_BOUND( '', #113, .T. );
#97 = FACE_OUTER_BOUND( '', #114, .T. );
#98 = PLANE( '', #115 );
#99 = FACE_OUTER_BOUND( '', #116, .T. );
#100 = CONICAL_SURFACE( '', #117, 0.500000000000000, 0.785398163397448 );
#101 = EDGE_LOOP( '', ( #118, #119, #120 ) );
#102 = AXIS2_PLACEMENT_3D( '', #121, #122, #123 );
#103 = EDGE_LOOP( '', ( #124, #125, #126, #127 ) );
#104 = AXIS2_PLACEMENT_3D( '', #128, #129, #130 );
#105 = EDGE_LOOP( '', ( #131, #132, #133, #134 ) );
#106 = AXIS2_PLACEMENT_3D( '', #135, #136, #137 );
#107 = EDGE_LOOP( '', ( #138, #139 ) );
#108 = AXIS2_PLACEMENT_3D( '', #140, #141, #142 );
#109 = EDGE_LOOP( '', ( #143, #144, #145, #146 ) );
#110 = AXIS2_PLACEMENT_3D( '', #147, #148, #149 );
#111 = EDGE_LOOP( '', ( #150, #151, #152, #153 ) );
#112 = AXIS2_PLACEMENT_3D( '', #154, #155, #156 );
#113 = EDGE_LOOP( '', ( #157, #158 ) );
#114 = EDGE_LOOP( '', ( #159, #160 ) );
#115 = AXIS2_PLACEMENT_3D( '', #161, #162, #163 );
#116 = EDGE_LOOP( '', ( #164, #165, #166 ) );
#117 = AXIS2_PLACEMENT_3D( '', #167, #168, #169 );
#118 = ORIENTED_EDGE( '', *, *, #170, .T. );
#119 = ORIENTED_EDGE( '', *, *, #171, .T. );
#120 = ORIENTED_EDGE( '', *, *, #172, .T. );
#121 = CARTESIAN_POINT( '', ( 0.000000000000000, 7.50000000000000, 0.000000000000000 ) );
#122 = DIRECTION( '', ( -0.000000000000000, 1.00000000000000, -0.000000000000000 ) );
#123 = DIRECTION( '', ( 1.00000000000000, 0.000000000000000, 0.000000000000000 ) );
#124 = ORIENTED_EDGE( '', *, *, #173, .F. );
#125 = ORIENTED_EDGE( '', *, *, #174, .T. );
#126 = ORIENTED_EDGE( '', *, *, #175, .F. );
#127 = ORIENTED_EDGE( '', *, *, #176, .F. );
#128 = CARTESIAN_POINT( '', ( 0.000000000000000, 4.35000000000000, 0.000000000000000 ) );
#129 = DIRECTION( '', ( 0.000000000000000, -1.00000000000000, -0.000000000000000 ) );
#130 = DIRECTION( '', ( 1.00000000000000, 0.000000000000000, 0.000000000000000 ) );
#131 = ORIENTED_EDGE( '', *, *, #177, .F. );
#132 = ORIENTED_EDGE( '', *, *, #178, .T. );
#133 = ORIENTED_EDGE( '', *, *, #179, .F. );
#134 = ORIENTED_EDGE( '', *, *, #174, .F. );
#135 = CARTESIAN_POINT( '', ( 0.000000000000000, 0.350000000000000, 0.000000000000000 ) );
#136 = DIRECTION( '', ( -0.000000000000000, 1.00000000000000, -0.000000000000000 ) );
#137 = DIRECTION( '', ( 1.00000000000000, 0.000000000000000, 0.000000000000000 ) );
#138 = ORIENTED_EDGE( '', *, *, #178, .F. );
#139 = ORIENTED_EDGE( '', *, *, #180, .F. );
#140 = CARTESIAN_POINT( '', ( 1.29792740578363, 0.000000000000000, 0.000000000000000 ) );
#141 = DIRECTION( '', ( -0.000000000000000, -1.00000000000000, -0.000000000000000 ) );
#142 = DIRECTION( '', ( -1.00000000000000, 0.000000000000000, 0.000000000000000 ) );
#143 = ORIENTED_EDGE( '', *, *, #177, .T. );
#144 = ORIENTED_EDGE( '', *, *, #181, .F. );
#145 = ORIENTED_EDGE( '', *, *, #179, .T. );
#146 = ORIENTED_EDGE( '', *, *, #180, .T. );
#147 = CARTESIAN_POINT( '', ( 0.000000000000000, 0.350000000000000, 0.000000000000000 ) );
#148 = DIRECTION( '', ( -0.000000000000000, 1.00000000000000, -0.000000000000000 ) );
#149 = DIRECTION( '', ( 1.00000000000000, 0.000000000000000, 0.000000000000000 ) );
#150 = ORIENTED_EDGE( '', *, *, #173, .T. );
#151 = ORIENTED_EDGE( '', *, *, #182, .F. );
#152 = ORIENTED_EDGE( '', *, *, #175, .T. );
#153 = ORIENTED_EDGE( '', *, *, #181, .T. );
#154 = CARTESIAN_POINT( '', ( 0.000000000000000, 4.35000000000000, 0.000000000000000 ) );
#155 = DIRECTION( '', ( 0.000000000000000, -1.00000000000000, -0.000000000000000 ) );
#156 = DIRECTION( '', ( 1.00000000000000, 0.000000000000000, 0.000000000000000 ) );
#157 = ORIENTED_EDGE( '', *, *, #172, .F. );
#158 = ORIENTED_EDGE( '', *, *, #183, .F. );
#159 = ORIENTED_EDGE( '', *, *, #176, .T. );
#160 = ORIENTED_EDGE( '', *, *, #182, .T. );
#161 = CARTESIAN_POINT( '', ( 2.00000000000000, 8.00000000000000, 0.000000000000000 ) );
#162 = DIRECTION( '', ( -0.000000000000000, 1.00000000000000, 0.000000000000000 ) );
#163 = DIRECTION( '', ( 1.00000000000000, 0.000000000000000, 0.000000000000000 ) );
#164 = ORIENTED_EDGE( '', *, *, #170, .F. );
#165 = ORIENTED_EDGE( '', *, *, #183, .T. );
#166 = ORIENTED_EDGE( '', *, *, #171, .F. );
#167 = CARTESIAN_POINT( '', ( 0.000000000000000, 7.50000000000000, 0.000000000000000 ) );
#168 = DIRECTION( '', ( -0.000000000000000, 1.00000000000000, -0.000000000000000 ) );
#169 = DIRECTION( '', ( 1.00000000000000, 0.000000000000000, 0.000000000000000 ) );
#170 = EDGE_CURVE( '', #184, #185, #186, .T. );
#171 = EDGE_CURVE( '', #185, #187, #188, .T. );
#172 = EDGE_CURVE( '', #187, #184, #189, .T. );
#173 = EDGE_CURVE( '', #190, #191, #192, .T. );
#174 = EDGE_CURVE( '', #190, #193, #194, .T. );
#175 = EDGE_CURVE( '', #195, #193, #196, .T. );
#176 = EDGE_CURVE( '', #191, #195, #197, .T. );
#177 = EDGE_CURVE( '', #198, #190, #199, .T. );
#178 = EDGE_CURVE( '', #198, #200, #201, .T. );
#179 = EDGE_CURVE( '', #193, #200, #202, .T. );
#180 = EDGE_CURVE( '', #200, #198, #203, .T. );
#181 = EDGE_CURVE( '', #193, #190, #204, .T. );
#182 = EDGE_CURVE( '', #195, #191, #205, .T. );
#183 = EDGE_CURVE( '', #184, #187, #206, .T. );
#184 = VERTEX_POINT( '', #207 );
#185 = VERTEX_POINT( '', #208 );
#186 = LINE( '', #209, #210 );
#187 = VERTEX_POINT( '', #211 );
#188 = LINE( '', #212, #213 );
#189 = CIRCLE( '', #214, 1.00000000000000 );
#190 = VERTEX_POINT( '', #215 );
#191 = VERTEX_POINT( '', #216 );
#192 = LINE( '', #217, #218 );
#193 = VERTEX_POINT( '', #219 );
#194 = CIRCLE( '', #220, 3.00000000000000 );
#195 = VERTEX_POINT( '', #221 );
#196 = LINE( '', #222, #223 );
#197 = CIRCLE( '', #224, 3.00000000000000 );
#198 = VERTEX_POINT( '', #225 );
#199 = LINE( '', #226, #227 );
#200 = VERTEX_POINT( '', #228 );
#201 = CIRCLE( '', #229, 2.59585481156726 );
#202 = LINE( '', #230, #231 );
#203 = CIRCLE( '', #232, 2.59585481156726 );
#204 = CIRCLE( '', #233, 3.00000000000000 );
#205 = CIRCLE( '', #234, 3.00000000000000 );
#206 = CIRCLE( '', #235, 1.00000000000000 );
#207 = CARTESIAN_POINT( '', ( -1.00000000000000, 8.00000000000000, -1.22460635382238E-016 ) );
#208 = CARTESIAN_POINT( '', ( 0.000000000000000, 7.00000000000000, 0.000000000000000 ) );
#209 = CARTESIAN_POINT( '', ( -0.500000000000000, 7.50000000000000, -6.12303176911189E-017 ) );
#210 = VECTOR( '', #236, 1.00000000000000 );
#211 = CARTESIAN_POINT( '', ( 1.00000000000000, 8.00000000000000, 0.000000000000000 ) );
#212 = CARTESIAN_POINT( '', ( 0.500000000000000, 7.50000000000000, 6.12303176911189E-017 ) );
#213 = VECTOR( '', #237, 1.00000000000000 );
#214 = AXIS2_PLACEMENT_3D( '', #238, #239, #240 );
#215 = CARTESIAN_POINT( '', ( 3.00000000000000, 0.700000000000000, 0.000000000000000 ) );
#216 = CARTESIAN_POINT( '', ( 3.00000000000000, 8.00000000000000, 0.000000000000000 ) );
#217 = CARTESIAN_POINT( '', ( 3.00000000000000, 4.35000000000000, 3.67381906146713E-016 ) );
#218 = VECTOR( '', #241, 1.00000000000000 );
#219 = CARTESIAN_POINT( '', ( -3.00000000000000, 0.700000000000000, -3.67381906146713E-016 ) );
#220 = AXIS2_PLACEMENT_3D( '', #242, #243, #244 );
#221 = CARTESIAN_POINT( '', ( -3.00000000000000, 8.00000000000000, -3.67381906146713E-016 ) );
#222 = CARTESIAN_POINT( '', ( -3.00000000000000, 4.35000000000000, -3.67381906146713E-016 ) );
#223 = VECTOR( '', #245, 1.00000000000000 );
#224 = AXIS2_PLACEMENT_3D( '', #246, #247, #248 );
#225 = CARTESIAN_POINT( '', ( 2.59585481156726, 0.000000000000000, 0.000000000000000 ) );
#226 = CARTESIAN_POINT( '', ( 2.79792740578363, 0.350000000000000, 3.42635967865639E-016 ) );
#227 = VECTOR( '', #249, 1.00000000000000 );
#228 = CARTESIAN_POINT( '', ( -2.59585481156726, 0.000000000000000, -3.17890029584566E-016 ) );
#229 = AXIS2_PLACEMENT_3D( '', #250, #251, #252 );
#230 = CARTESIAN_POINT( '', ( -2.79792740578363, 0.350000000000000, -3.42635967865639E-016 ) );
#231 = VECTOR( '', #253, 1.00000000000000 );
#232 = AXIS2_PLACEMENT_3D( '', #254, #255, #256 );
#233 = AXIS2_PLACEMENT_3D( '', #257, #258, #259 );
#234 = AXIS2_PLACEMENT_3D( '', #260, #261, #262 );
#235 = AXIS2_PLACEMENT_3D( '', #263, #264, #265 );
#236 = DIRECTION( '', ( 0.707106781186548, -0.707106781186548, 8.65927457071936E-017 ) );
#237 = DIRECTION( '', ( 0.707106781186548, 0.707106781186548, 8.65927457071936E-017 ) );
#238 = CARTESIAN_POINT( '', ( 0.000000000000000, 8.00000000000000, 0.000000000000000 ) );
#239 = DIRECTION( '', ( -0.000000000000000, 1.00000000000000, 0.000000000000000 ) );
#240 = DIRECTION( '', ( 1.00000000000000, 0.000000000000000, 0.000000000000000 ) );
#241 = DIRECTION( '', ( 0.000000000000000, 1.00000000000000, 0.000000000000000 ) );
#242 = CARTESIAN_POINT( '', ( 0.000000000000000, 0.700000000000000, 0.000000000000000 ) );
#243 = DIRECTION( '', ( -0.000000000000000, 1.00000000000000, 0.000000000000000 ) );
#244 = DIRECTION( '', ( 1.00000000000000, 0.000000000000000, 0.000000000000000 ) );
#245 = DIRECTION( '', ( -0.000000000000000, -1.00000000000000, -0.000000000000000 ) );
#246 = CARTESIAN_POINT( '', ( 0.000000000000000, 8.00000000000000, 0.000000000000000 ) );
#247 = DIRECTION( '', ( -0.000000000000000, 1.00000000000000, 0.000000000000000 ) );
#248 = DIRECTION( '', ( 1.00000000000000, 0.000000000000000, 0.000000000000000 ) );
#249 = DIRECTION( '', ( 0.500000000000001, 0.866025403784438, 6.12303176911190E-017 ) );
#250 = CARTESIAN_POINT( '', ( 0.000000000000000, 0.000000000000000, 0.000000000000000 ) );
#251 = DIRECTION( '', ( -0.000000000000000, 1.00000000000000, 0.000000000000000 ) );
#252 = DIRECTION( '', ( 1.00000000000000, 0.000000000000000, 0.000000000000000 ) );
#253 = DIRECTION( '', ( 0.500000000000001, -0.866025403784438, 6.12303176911190E-017 ) );
#254 = CARTESIAN_POINT( '', ( 0.000000000000000, 0.000000000000000, 0.000000000000000 ) );
#255 = DIRECTION( '', ( -0.000000000000000, 1.00000000000000, 0.000000000000000 ) );
#256 = DIRECTION( '', ( 1.00000000000000, 0.000000000000000, 0.000000000000000 ) );
#257 = CARTESIAN_POINT( '', ( 0.000000000000000, 0.700000000000000, 0.000000000000000 ) );
#258 = DIRECTION( '', ( -0.000000000000000, 1.00000000000000, 0.000000000000000 ) );
#259 = DIRECTION( '', ( 1.00000000000000, 0.000000000000000, 0.000000000000000 ) );
#260 = CARTESIAN_POINT( '', ( 0.000000000000000, 8.00000000000000, 0.000000000000000 ) );
#261 = DIRECTION( '', ( -0.000000000000000, 1.00000000000000, 0.000000000000000 ) );
#262 = DIRECTION( '', ( 1.00000000000000, 0.000000000000000, 0.000000000000000 ) );
#263 = CARTESIAN_POINT( '', ( 0.000000000000000, 8.00000000000000, 0.000000000000000 ) );
#264 = DIRECTION( '', ( -0.000000000000000, 1.00000000000000, 0.000000000000000 ) );
#265 = DIRECTION( '', ( 1.00000000000000, 0.000000000000000, 0.000000000000000 ) );
ENDSEC;
END-ISO-10303-21;
