ISO-10303-21;
HEADER;
FILE_DESCRIPTION( ( '' ), '1' );
FILE_NAME( 'C:/Users/Bollwitte/Desktop/987/K0353.08.stp', '2012-10-30T12:59:06', ( '' ), ( '' ), ' ', ' ', ' ' );
FILE_SCHEMA( ( 'CONFIG_CONTROL_DESIGN' ) );
ENDSEC;
DATA;
#1 = DESIGN_CONTEXT( '', #27, 'design' );
#2 = APPLICATION_PROTOCOL_DEFINITION( 'INTERNATIONAL STANDARD', 'config_control_design', 1994, #27 );
#3 = PRODUCT_CATEGORY_RELATIONSHIP( 'NONE', 'NONE', #28, #29 );
#4 = DATE_AND_TIME( #30, #31 );
#5 = DATE_TIME_ROLE( 'creation_date' );
#6 = DATE_TIME_ROLE( 'classification_date' );
#7 = PERSON_AND_ORGANIZATION_ROLE( 'creator' );
#8 = PERSON_AND_ORGANIZATION_ROLE( 'design_supplier' );
#9 = PERSON_AND_ORGANIZATION_ROLE( 'classification_officer' );
#10 = PERSON_AND_ORGANIZATION_ROLE( 'design_owner' );
#11 = APPROVAL_PERSON_ORGANIZATION( #32, #33, #34 );
#12 = APPROVAL_DATE_TIME( #4, #33 );
#13 = CC_DESIGN_APPROVAL( #33, ( #35, #36, #37 ) );
#14 = CC_DESIGN_DATE_AND_TIME_ASSIGNMENT( #4, #5, ( #37 ) );
#15 = CC_DESIGN_DATE_AND_TIME_ASSIGNMENT( #4, #6, ( #35 ) );
#16 = CC_DESIGN_PERSON_AND_ORGANIZATION_ASSIGNMENT( #32, #10, ( #38 ) );
#17 = CC_DESIGN_PERSON_AND_ORGANIZATION_ASSIGNMENT( #32, #7, ( #37 ) );
#18 = CC_DESIGN_PERSON_AND_ORGANIZATION_ASSIGNMENT( #32, #7, ( #36 ) );
#19 = CC_DESIGN_PERSON_AND_ORGANIZATION_ASSIGNMENT( #32, #8, ( #36 ) );
#20 = CC_DESIGN_SECURITY_CLASSIFICATION( #35, ( #36 ) );
#21 = CC_DESIGN_PERSON_AND_ORGANIZATION_ASSIGNMENT( #32, #9, ( #35 ) );
#22 = SHAPE_DEFINITION_REPRESENTATION( #39, #40 );
#23 =  ( GEOMETRIC_REPRESENTATION_CONTEXT( 3 )GLOBAL_UNCERTAINTY_ASSIGNED_CONTEXT( ( #43 ) )GLOBAL_UNIT_ASSIGNED_CONTEXT( ( #45, #46, #47 ) )REPRESENTATION_CONTEXT( 'NONE', 'WORKSPACE' ) );
#27 = APPLICATION_CONTEXT( 'CONFIGURATION CONTROLLED 3D DESIGNS OF MECHANICAL PARTS AND ASSEMBLIES' );
#28 = PRODUCT_CATEGORY( 'part', 'NONE' );
#29 = PRODUCT_RELATED_PRODUCT_CATEGORY( 'detail', ' ', ( #38 ) );
#30 = CALENDAR_DATE( 2012, 30, 9 );
#31 = LOCAL_TIME( 13, 59, 6.00000000000000, #49 );
#32 = PERSON_AND_ORGANIZATION( #50, #51 );
#33 = APPROVAL( #52, 'SOLID MODEL' );
#34 = APPROVAL_ROLE( 'APPROVED' );
#35 = SECURITY_CLASSIFICATION( '', '', #53 );
#36 = PRODUCT_DEFINITION_FORMATION_WITH_SPECIFIED_SOURCE( ' ', 'NONE', #38, .NOT_KNOWN. );
#37 = PRODUCT_DEFINITION( 'NONE', 'NONE', #36, #1 );
#38 = PRODUCT( '1', '1', 'PART-1-DESC', ( #54 ) );
#39 = PRODUCT_DEFINITION_SHAPE( 'NONE', 'NONE', #37 );
#40 = ADVANCED_BREP_SHAPE_REPRESENTATION( '1', ( #55, #56 ), #23 );
#43 = UNCERTAINTY_MEASURE_WITH_UNIT( LENGTH_MEASURE( 1.00000000000000E-006 ), #45, '', '' );
#45 =  ( CONVERSION_BASED_UNIT( 'MILLIMETRE', #59 )LENGTH_UNIT(  )NAMED_UNIT( #62 ) );
#46 =  ( NAMED_UNIT( #64 )PLANE_ANGLE_UNIT(  )SI_UNIT( $, .RADIAN. ) );
#47 =  ( NAMED_UNIT( #64 )SOLID_ANGLE_UNIT(  )SI_UNIT( $, .STERADIAN. ) );
#49 = COORDINATED_UNIVERSAL_TIME_OFFSET( 1, 0, .AHEAD. );
#50 = PERSON( '', 'UNSPECIFIED', $, $, $, $ );
#51 = ORGANIZATION( 'UNSPECIFIED', 'UNSPECIFIED', 'UNSPECIFIED' );
#52 = APPROVAL_STATUS( 'approved' );
#53 = SECURITY_CLASSIFICATION_LEVEL( 'unclassified' );
#54 = MECHANICAL_CONTEXT( '', #27, 'mechanical' );
#55 = MANIFOLD_SOLID_BREP( '1', #70 );
#56 = AXIS2_PLACEMENT_3D( '', #71, #72, #73 );
#59 = LENGTH_MEASURE_WITH_UNIT( LENGTH_MEASURE( 1.00000000000000 ), #74 );
#62 = DIMENSIONAL_EXPONENTS( 1.00000000000000, 0.000000000000000, 0.000000000000000, 0.000000000000000, 0.000000000000000, 0.000000000000000, 0.000000000000000 );
#64 = DIMENSIONAL_EXPONENTS( 0.000000000000000, 0.000000000000000, 0.000000000000000, 0.000000000000000, 0.000000000000000, 0.000000000000000, 0.000000000000000 );
#70 = CLOSED_SHELL( '', ( #75, #76, #77, #78, #79, #80, #81, #82, #83, #84, #85, #86, #87, #88 ) );
#71 = CARTESIAN_POINT( '', ( 0.000000000000000, 0.000000000000000, 0.000000000000000 ) );
#72 = DIRECTION( '', ( 0.000000000000000, 0.000000000000000, 1.00000000000000 ) );
#73 = DIRECTION( '', ( 1.00000000000000, 0.000000000000000, 0.000000000000000 ) );
#74 =  ( NAMED_UNIT( #62 )LENGTH_UNIT(  )SI_UNIT( .MILLI., .METRE. ) );
#75 = ADVANCED_FACE( '', ( #90 ), #91, .T. );
#76 = ADVANCED_FACE( '', ( #92 ), #93, .T. );
#77 = ADVANCED_FACE( '', ( #94 ), #95, .T. );
#78 = ADVANCED_FACE( '', ( #96 ), #97, .T. );
#79 = ADVANCED_FACE( '', ( #98 ), #99, .T. );
#80 = ADVANCED_FACE( '', ( #100 ), #101, .T. );
#81 = ADVANCED_FACE( '', ( #102 ), #103, .T. );
#82 = ADVANCED_FACE( '', ( #104 ), #105, .T. );
#83 = ADVANCED_FACE( '', ( #106, #107 ), #108, .T. );
#84 = ADVANCED_FACE( '', ( #109 ), #110, .T. );
#85 = ADVANCED_FACE( '', ( #111, #112 ), #113, .T. );
#86 = ADVANCED_FACE( '', ( #114 ), #115, .T. );
#87 = ADVANCED_FACE( '', ( #116 ), #117, .T. );
#88 = ADVANCED_FACE( '', ( #118 ), #119, .T. );
#90 = FACE_OUTER_BOUND( '', #120, .T. );
#91 = CONICAL_SURFACE( '', #121, 5.73205080756888, 0.261799387799150 );
#92 = FACE_OUTER_BOUND( '', #122, .T. );
#93 = CYLINDRICAL_SURFACE( '', #123, 6.00000000000000 );
#94 = FACE_OUTER_BOUND( '', #124, .T. );
#95 = CYLINDRICAL_SURFACE( '', #125, 3.85000000000000 );
#96 = FACE_OUTER_BOUND( '', #126, .T. );
#97 = CYLINDRICAL_SURFACE( '', #127, 4.00000000000000 );
#98 = FACE_OUTER_BOUND( '', #128, .T. );
#99 = CONICAL_SURFACE( '', #129, 3.50000000000000, 0.785398163397448 );
#100 = FACE_OUTER_BOUND( '', #130, .T. );
#101 = PLANE( '', #131 );
#102 = FACE_OUTER_BOUND( '', #132, .T. );
#103 = CONICAL_SURFACE( '', #133, 3.50000000000000, 0.785398163397448 );
#104 = FACE_OUTER_BOUND( '', #134, .T. );
#105 = CYLINDRICAL_SURFACE( '', #135, 4.00000000000000 );
#106 = FACE_BOUND( '', #136, .T. );
#107 = FACE_OUTER_BOUND( '', #137, .T. );
#108 = PLANE( '', #138 );
#109 = FACE_OUTER_BOUND( '', #139, .T. );
#110 = CYLINDRICAL_SURFACE( '', #140, 3.85000000000000 );
#111 = FACE_OUTER_BOUND( '', #141, .T. );
#112 = FACE_BOUND( '', #142, .T. );
#113 = PLANE( '', #143 );
#114 = FACE_OUTER_BOUND( '', #144, .T. );
#115 = CYLINDRICAL_SURFACE( '', #145, 6.00000000000000 );
#116 = FACE_OUTER_BOUND( '', #146, .T. );
#117 = CONICAL_SURFACE( '', #147, 5.73205080756888, 0.261799387799150 );
#118 = FACE_OUTER_BOUND( '', #148, .T. );
#119 = PLANE( '', #149 );
#120 = EDGE_LOOP( '', ( #150, #151, #152, #153 ) );
#121 = AXIS2_PLACEMENT_3D( '', #154, #155, #156 );
#122 = EDGE_LOOP( '', ( #157, #158, #159, #160 ) );
#123 = AXIS2_PLACEMENT_3D( '', #161, #162, #163 );
#124 = EDGE_LOOP( '', ( #164, #165, #166, #167 ) );
#125 = AXIS2_PLACEMENT_3D( '', #168, #169, #170 );
#126 = EDGE_LOOP( '', ( #171, #172, #173, #174 ) );
#127 = AXIS2_PLACEMENT_3D( '', #175, #176, #177 );
#128 = EDGE_LOOP( '', ( #178, #179, #180, #181 ) );
#129 = AXIS2_PLACEMENT_3D( '', #182, #183, #184 );
#130 = EDGE_LOOP( '', ( #185, #186 ) );
#131 = AXIS2_PLACEMENT_3D( '', #187, #188, #189 );
#132 = EDGE_LOOP( '', ( #190, #191, #192, #193 ) );
#133 = AXIS2_PLACEMENT_3D( '', #194, #195, #196 );
#134 = EDGE_LOOP( '', ( #197, #198, #199, #200 ) );
#135 = AXIS2_PLACEMENT_3D( '', #201, #202, #203 );
#136 = EDGE_LOOP( '', ( #204, #205 ) );
#137 = EDGE_LOOP( '', ( #206, #207 ) );
#138 = AXIS2_PLACEMENT_3D( '', #208, #209, #210 );
#139 = EDGE_LOOP( '', ( #211, #212, #213, #214 ) );
#140 = AXIS2_PLACEMENT_3D( '', #215, #216, #217 );
#141 = EDGE_LOOP( '', ( #218, #219 ) );
#142 = EDGE_LOOP( '', ( #220, #221 ) );
#143 = AXIS2_PLACEMENT_3D( '', #222, #223, #224 );
#144 = EDGE_LOOP( '', ( #225, #226, #227, #228 ) );
#145 = AXIS2_PLACEMENT_3D( '', #229, #230, #231 );
#146 = EDGE_LOOP( '', ( #232, #233, #234, #235 ) );
#147 = AXIS2_PLACEMENT_3D( '', #236, #237, #238 );
#148 = EDGE_LOOP( '', ( #239, #240 ) );
#149 = AXIS2_PLACEMENT_3D( '', #241, #242, #243 );
#150 = ORIENTED_EDGE( '', *, *, #244, .F. );
#151 = ORIENTED_EDGE( '', *, *, #245, .T. );
#152 = ORIENTED_EDGE( '', *, *, #246, .F. );
#153 = ORIENTED_EDGE( '', *, *, #247, .F. );
#154 = CARTESIAN_POINT( '', ( 0.000000000000000, 7.00000000000000, 0.000000000000000 ) );
#155 = DIRECTION( '', ( -0.000000000000000, -1.00000000000000, -0.000000000000000 ) );
#156 = DIRECTION( '', ( 0.000000000000000, 0.000000000000000, -1.00000000000000 ) );
#157 = ORIENTED_EDGE( '', *, *, #248, .F. );
#158 = ORIENTED_EDGE( '', *, *, #249, .T. );
#159 = ORIENTED_EDGE( '', *, *, #250, .F. );
#160 = ORIENTED_EDGE( '', *, *, #245, .F. );
#161 = CARTESIAN_POINT( '', ( 0.000000000000000, 3.00000000000000, 0.000000000000000 ) );
#162 = DIRECTION( '', ( -0.000000000000000, -1.00000000000000, -0.000000000000000 ) );
#163 = DIRECTION( '', ( 0.000000000000000, 0.000000000000000, -1.00000000000000 ) );
#164 = ORIENTED_EDGE( '', *, *, #251, .F. );
#165 = ORIENTED_EDGE( '', *, *, #252, .T. );
#166 = ORIENTED_EDGE( '', *, *, #253, .F. );
#167 = ORIENTED_EDGE( '', *, *, #254, .F. );
#168 = CARTESIAN_POINT( '', ( 0.000000000000000, -0.500000000000000, 0.000000000000000 ) );
#169 = DIRECTION( '', ( -0.000000000000000, -1.00000000000000, -0.000000000000000 ) );
#170 = DIRECTION( '', ( 0.000000000000000, 0.000000000000000, -1.00000000000000 ) );
#171 = ORIENTED_EDGE( '', *, *, #255, .F. );
#172 = ORIENTED_EDGE( '', *, *, #256, .T. );
#173 = ORIENTED_EDGE( '', *, *, #257, .F. );
#174 = ORIENTED_EDGE( '', *, *, #258, .F. );
#175 = CARTESIAN_POINT( '', ( 0.000000000000000, -5.00000000000000, 0.000000000000000 ) );
#176 = DIRECTION( '', ( -0.000000000000000, -1.00000000000000, -0.000000000000000 ) );
#177 = DIRECTION( '', ( 0.000000000000000, 0.000000000000000, -1.00000000000000 ) );
#178 = ORIENTED_EDGE( '', *, *, #259, .F. );
#179 = ORIENTED_EDGE( '', *, *, #260, .T. );
#180 = ORIENTED_EDGE( '', *, *, #261, .F. );
#181 = ORIENTED_EDGE( '', *, *, #256, .F. );
#182 = CARTESIAN_POINT( '', ( 0.000000000000000, -9.50000000000000, 0.000000000000000 ) );
#183 = DIRECTION( '', ( 0.000000000000000, 1.00000000000000, 0.000000000000000 ) );
#184 = DIRECTION( '', ( 0.000000000000000, 0.000000000000000, -1.00000000000000 ) );
#185 = ORIENTED_EDGE( '', *, *, #260, .F. );
#186 = ORIENTED_EDGE( '', *, *, #262, .F. );
#187 = CARTESIAN_POINT( '', ( 0.000000000000000, -10.0000000000000, -1.50000000000000 ) );
#188 = DIRECTION( '', ( 0.000000000000000, -1.00000000000000, 0.000000000000000 ) );
#189 = DIRECTION( '', ( 0.000000000000000, 0.000000000000000, 1.00000000000000 ) );
#190 = ORIENTED_EDGE( '', *, *, #259, .T. );
#191 = ORIENTED_EDGE( '', *, *, #263, .F. );
#192 = ORIENTED_EDGE( '', *, *, #261, .T. );
#193 = ORIENTED_EDGE( '', *, *, #262, .T. );
#194 = CARTESIAN_POINT( '', ( 0.000000000000000, -9.50000000000000, 0.000000000000000 ) );
#195 = DIRECTION( '', ( 0.000000000000000, 1.00000000000000, 0.000000000000000 ) );
#196 = DIRECTION( '', ( 0.000000000000000, 0.000000000000000, -1.00000000000000 ) );
#197 = ORIENTED_EDGE( '', *, *, #255, .T. );
#198 = ORIENTED_EDGE( '', *, *, #264, .F. );
#199 = ORIENTED_EDGE( '', *, *, #257, .T. );
#200 = ORIENTED_EDGE( '', *, *, #263, .T. );
#201 = CARTESIAN_POINT( '', ( 0.000000000000000, -5.00000000000000, 0.000000000000000 ) );
#202 = DIRECTION( '', ( -0.000000000000000, -1.00000000000000, -0.000000000000000 ) );
#203 = DIRECTION( '', ( 0.000000000000000, 0.000000000000000, -1.00000000000000 ) );
#204 = ORIENTED_EDGE( '', *, *, #252, .F. );
#205 = ORIENTED_EDGE( '', *, *, #265, .F. );
#206 = ORIENTED_EDGE( '', *, *, #258, .T. );
#207 = ORIENTED_EDGE( '', *, *, #264, .T. );
#208 = CARTESIAN_POINT( '', ( 0.000000000000000, -1.00000000000000, -3.92500000000000 ) );
#209 = DIRECTION( '', ( 0.000000000000000, 1.00000000000000, 0.000000000000000 ) );
#210 = DIRECTION( '', ( 0.000000000000000, 0.000000000000000, -1.00000000000000 ) );
#211 = ORIENTED_EDGE( '', *, *, #251, .T. );
#212 = ORIENTED_EDGE( '', *, *, #266, .F. );
#213 = ORIENTED_EDGE( '', *, *, #253, .T. );
#214 = ORIENTED_EDGE( '', *, *, #265, .T. );
#215 = CARTESIAN_POINT( '', ( 0.000000000000000, -0.500000000000000, 0.000000000000000 ) );
#216 = DIRECTION( '', ( -0.000000000000000, -1.00000000000000, -0.000000000000000 ) );
#217 = DIRECTION( '', ( 0.000000000000000, 0.000000000000000, -1.00000000000000 ) );
#218 = ORIENTED_EDGE( '', *, *, #249, .F. );
#219 = ORIENTED_EDGE( '', *, *, #267, .F. );
#220 = ORIENTED_EDGE( '', *, *, #254, .T. );
#221 = ORIENTED_EDGE( '', *, *, #266, .T. );
#222 = CARTESIAN_POINT( '', ( 0.000000000000000, 0.000000000000000, -4.92500000000000 ) );
#223 = DIRECTION( '', ( 0.000000000000000, -1.00000000000000, 0.000000000000000 ) );
#224 = DIRECTION( '', ( 0.000000000000000, 0.000000000000000, 1.00000000000000 ) );
#225 = ORIENTED_EDGE( '', *, *, #248, .T. );
#226 = ORIENTED_EDGE( '', *, *, #268, .F. );
#227 = ORIENTED_EDGE( '', *, *, #250, .T. );
#228 = ORIENTED_EDGE( '', *, *, #267, .T. );
#229 = CARTESIAN_POINT( '', ( 0.000000000000000, 3.00000000000000, 0.000000000000000 ) );
#230 = DIRECTION( '', ( -0.000000000000000, -1.00000000000000, -0.000000000000000 ) );
#231 = DIRECTION( '', ( 0.000000000000000, 0.000000000000000, -1.00000000000000 ) );
#232 = ORIENTED_EDGE( '', *, *, #244, .T. );
#233 = ORIENTED_EDGE( '', *, *, #269, .F. );
#234 = ORIENTED_EDGE( '', *, *, #246, .T. );
#235 = ORIENTED_EDGE( '', *, *, #268, .T. );
#236 = CARTESIAN_POINT( '', ( 0.000000000000000, 7.00000000000000, 0.000000000000000 ) );
#237 = DIRECTION( '', ( -0.000000000000000, -1.00000000000000, -0.000000000000000 ) );
#238 = DIRECTION( '', ( 0.000000000000000, 0.000000000000000, -1.00000000000000 ) );
#239 = ORIENTED_EDGE( '', *, *, #247, .T. );
#240 = ORIENTED_EDGE( '', *, *, #269, .T. );
#241 = CARTESIAN_POINT( '', ( 0.000000000000000, 8.00000000000000, -2.73205080756888 ) );
#242 = DIRECTION( '', ( 0.000000000000000, 1.00000000000000, 0.000000000000000 ) );
#243 = DIRECTION( '', ( 0.000000000000000, 0.000000000000000, -1.00000000000000 ) );
#244 = EDGE_CURVE( '', #270, #271, #272, .T. );
#245 = EDGE_CURVE( '', #270, #273, #274, .T. );
#246 = EDGE_CURVE( '', #275, #273, #276, .T. );
#247 = EDGE_CURVE( '', #271, #275, #277, .T. );
#248 = EDGE_CURVE( '', #278, #270, #279, .T. );
#249 = EDGE_CURVE( '', #278, #280, #281, .T. );
#250 = EDGE_CURVE( '', #273, #280, #282, .T. );
#251 = EDGE_CURVE( '', #283, #284, #285, .T. );
#252 = EDGE_CURVE( '', #283, #286, #287, .T. );
#253 = EDGE_CURVE( '', #288, #286, #289, .T. );
#254 = EDGE_CURVE( '', #284, #288, #290, .T. );
#255 = EDGE_CURVE( '', #291, #292, #293, .T. );
#256 = EDGE_CURVE( '', #291, #294, #295, .T. );
#257 = EDGE_CURVE( '', #296, #294, #297, .T. );
#258 = EDGE_CURVE( '', #292, #296, #298, .T. );
#259 = EDGE_CURVE( '', #299, #291, #300, .T. );
#260 = EDGE_CURVE( '', #299, #301, #302, .T. );
#261 = EDGE_CURVE( '', #294, #301, #303, .T. );
#262 = EDGE_CURVE( '', #301, #299, #304, .T. );
#263 = EDGE_CURVE( '', #294, #291, #305, .T. );
#264 = EDGE_CURVE( '', #296, #292, #306, .T. );
#265 = EDGE_CURVE( '', #286, #283, #307, .T. );
#266 = EDGE_CURVE( '', #288, #284, #308, .T. );
#267 = EDGE_CURVE( '', #280, #278, #309, .T. );
#268 = EDGE_CURVE( '', #273, #270, #310, .T. );
#269 = EDGE_CURVE( '', #275, #271, #311, .T. );
#270 = VERTEX_POINT( '', #312 );
#271 = VERTEX_POINT( '', #313 );
#272 = LINE( '', #314, #315 );
#273 = VERTEX_POINT( '', #316 );
#274 = CIRCLE( '', #317, 6.00000000000000 );
#275 = VERTEX_POINT( '', #318 );
#276 = LINE( '', #319, #320 );
#277 = CIRCLE( '', #321, 5.46410161513775 );
#278 = VERTEX_POINT( '', #322 );
#279 = LINE( '', #323, #324 );
#280 = VERTEX_POINT( '', #325 );
#281 = CIRCLE( '', #326, 6.00000000000000 );
#282 = LINE( '', #327, #328 );
#283 = VERTEX_POINT( '', #329 );
#284 = VERTEX_POINT( '', #330 );
#285 = LINE( '', #331, #332 );
#286 = VERTEX_POINT( '', #333 );
#287 = CIRCLE( '', #334, 3.85000000000000 );
#288 = VERTEX_POINT( '', #335 );
#289 = LINE( '', #336, #337 );
#290 = CIRCLE( '', #338, 3.85000000000000 );
#291 = VERTEX_POINT( '', #339 );
#292 = VERTEX_POINT( '', #340 );
#293 = LINE( '', #341, #342 );
#294 = VERTEX_POINT( '', #343 );
#295 = CIRCLE( '', #344, 4.00000000000000 );
#296 = VERTEX_POINT( '', #345 );
#297 = LINE( '', #346, #347 );
#298 = CIRCLE( '', #348, 4.00000000000000 );
#299 = VERTEX_POINT( '', #349 );
#300 = LINE( '', #350, #351 );
#301 = VERTEX_POINT( '', #352 );
#302 = CIRCLE( '', #353, 3.00000000000000 );
#303 = LINE( '', #354, #355 );
#304 = CIRCLE( '', #356, 3.00000000000000 );
#305 = CIRCLE( '', #357, 4.00000000000000 );
#306 = CIRCLE( '', #358, 4.00000000000000 );
#307 = CIRCLE( '', #359, 3.85000000000000 );
#308 = CIRCLE( '', #360, 3.85000000000000 );
#309 = CIRCLE( '', #361, 6.00000000000000 );
#310 = CIRCLE( '', #362, 6.00000000000000 );
#311 = CIRCLE( '', #363, 5.46410161513775 );
#312 = CARTESIAN_POINT( '', ( 0.000000000000000, 6.00000000000000, -6.00000000000000 ) );
#313 = CARTESIAN_POINT( '', ( 0.000000000000000, 8.00000000000000, -5.46410161513775 ) );
#314 = CARTESIAN_POINT( '', ( 7.01950583938154E-016, 7.00000000000000, -5.73205080756888 ) );
#315 = VECTOR( '', #364, 1.00000000000000 );
#316 = CARTESIAN_POINT( '', ( -7.34763812293426E-016, 6.00000000000000, 6.00000000000000 ) );
#317 = AXIS2_PLACEMENT_3D( '', #365, #366, #367 );
#318 = CARTESIAN_POINT( '', ( -6.69137355582881E-016, 8.00000000000000, 5.46410161513776 ) );
#319 = CARTESIAN_POINT( '', ( -7.01950583938154E-016, 7.00000000000000, 5.73205080756888 ) );
#320 = VECTOR( '', #368, 1.00000000000000 );
#321 = AXIS2_PLACEMENT_3D( '', #369, #370, #371 );
#322 = CARTESIAN_POINT( '', ( 0.000000000000000, 0.000000000000000, -6.00000000000000 ) );
#323 = CARTESIAN_POINT( '', ( 7.34763812293426E-016, 3.00000000000000, -6.00000000000000 ) );
#324 = VECTOR( '', #372, 1.00000000000000 );
#325 = CARTESIAN_POINT( '', ( -7.34763812293426E-016, 0.000000000000000, 6.00000000000000 ) );
#326 = AXIS2_PLACEMENT_3D( '', #373, #374, #375 );
#327 = CARTESIAN_POINT( '', ( -7.34763812293426E-016, 3.00000000000000, 6.00000000000000 ) );
#328 = VECTOR( '', #376, 1.00000000000000 );
#329 = CARTESIAN_POINT( '', ( 0.000000000000000, -1.00000000000000, -3.85000000000000 ) );
#330 = CARTESIAN_POINT( '', ( 0.000000000000000, 0.000000000000000, -3.85000000000000 ) );
#331 = CARTESIAN_POINT( '', ( 4.71473446221615E-016, -0.500000000000000, -3.85000000000000 ) );
#332 = VECTOR( '', #377, 1.00000000000000 );
#333 = CARTESIAN_POINT( '', ( -4.71473446221615E-016, -1.00000000000000, 3.85000000000000 ) );
#334 = AXIS2_PLACEMENT_3D( '', #378, #379, #380 );
#335 = CARTESIAN_POINT( '', ( -4.71473446221615E-016, 0.000000000000000, 3.85000000000000 ) );
#336 = CARTESIAN_POINT( '', ( -4.71473446221615E-016, -0.500000000000000, 3.85000000000000 ) );
#337 = VECTOR( '', #381, 1.00000000000000 );
#338 = AXIS2_PLACEMENT_3D( '', #382, #383, #384 );
#339 = CARTESIAN_POINT( '', ( 0.000000000000000, -9.00000000000000, -4.00000000000000 ) );
#340 = CARTESIAN_POINT( '', ( 0.000000000000000, -1.00000000000000, -4.00000000000000 ) );
#341 = CARTESIAN_POINT( '', ( 4.89842541528951E-016, -5.00000000000000, -4.00000000000000 ) );
#342 = VECTOR( '', #385, 1.00000000000000 );
#343 = CARTESIAN_POINT( '', ( -4.89842541528951E-016, -9.00000000000000, 4.00000000000000 ) );
#344 = AXIS2_PLACEMENT_3D( '', #386, #387, #388 );
#345 = CARTESIAN_POINT( '', ( -4.89842541528951E-016, -1.00000000000000, 4.00000000000000 ) );
#346 = CARTESIAN_POINT( '', ( -4.89842541528951E-016, -5.00000000000000, 4.00000000000000 ) );
#347 = VECTOR( '', #389, 1.00000000000000 );
#348 = AXIS2_PLACEMENT_3D( '', #390, #391, #392 );
#349 = CARTESIAN_POINT( '', ( 0.000000000000000, -10.0000000000000, -3.00000000000000 ) );
#350 = CARTESIAN_POINT( '', ( 4.28612223837832E-016, -9.50000000000000, -3.50000000000000 ) );
#351 = VECTOR( '', #393, 1.00000000000000 );
#352 = CARTESIAN_POINT( '', ( -3.67381906146713E-016, -10.0000000000000, 3.00000000000000 ) );
#353 = AXIS2_PLACEMENT_3D( '', #394, #395, #396 );
#354 = CARTESIAN_POINT( '', ( -4.28612223837832E-016, -9.50000000000000, 3.50000000000000 ) );
#355 = VECTOR( '', #397, 1.00000000000000 );
#356 = AXIS2_PLACEMENT_3D( '', #398, #399, #400 );
#357 = AXIS2_PLACEMENT_3D( '', #401, #402, #403 );
#358 = AXIS2_PLACEMENT_3D( '', #404, #405, #406 );
#359 = AXIS2_PLACEMENT_3D( '', #407, #408, #409 );
#360 = AXIS2_PLACEMENT_3D( '', #410, #411, #412 );
#361 = AXIS2_PLACEMENT_3D( '', #413, #414, #415 );
#362 = AXIS2_PLACEMENT_3D( '', #416, #417, #418 );
#363 = AXIS2_PLACEMENT_3D( '', #419, #420, #421 );
#364 = DIRECTION( '', ( -3.16951447122788E-017, 0.965925826289068, 0.258819045102521 ) );
#365 = CARTESIAN_POINT( '', ( 0.000000000000000, 6.00000000000000, 0.000000000000000 ) );
#366 = DIRECTION( '', ( 0.000000000000000, 1.00000000000000, 0.000000000000000 ) );
#367 = DIRECTION( '', ( 0.000000000000000, 0.000000000000000, -1.00000000000000 ) );
#368 = DIRECTION( '', ( -3.16951447122787E-017, -0.965925826289068, 0.258819045102521 ) );
#369 = CARTESIAN_POINT( '', ( 0.000000000000000, 8.00000000000000, 0.000000000000000 ) );
#370 = DIRECTION( '', ( 0.000000000000000, 1.00000000000000, 0.000000000000000 ) );
#371 = DIRECTION( '', ( 0.000000000000000, 0.000000000000000, -1.00000000000000 ) );
#372 = DIRECTION( '', ( 0.000000000000000, 1.00000000000000, 0.000000000000000 ) );
#373 = CARTESIAN_POINT( '', ( 0.000000000000000, 0.000000000000000, 0.000000000000000 ) );
#374 = DIRECTION( '', ( 0.000000000000000, 1.00000000000000, 0.000000000000000 ) );
#375 = DIRECTION( '', ( 0.000000000000000, 0.000000000000000, -1.00000000000000 ) );
#376 = DIRECTION( '', ( -0.000000000000000, -1.00000000000000, -0.000000000000000 ) );
#377 = DIRECTION( '', ( 0.000000000000000, 1.00000000000000, 0.000000000000000 ) );
#378 = CARTESIAN_POINT( '', ( 0.000000000000000, -1.00000000000000, 0.000000000000000 ) );
#379 = DIRECTION( '', ( 0.000000000000000, 1.00000000000000, 0.000000000000000 ) );
#380 = DIRECTION( '', ( 0.000000000000000, 0.000000000000000, -1.00000000000000 ) );
#381 = DIRECTION( '', ( -0.000000000000000, -1.00000000000000, -0.000000000000000 ) );
#382 = CARTESIAN_POINT( '', ( 0.000000000000000, 0.000000000000000, 0.000000000000000 ) );
#383 = DIRECTION( '', ( 0.000000000000000, 1.00000000000000, 0.000000000000000 ) );
#384 = DIRECTION( '', ( 0.000000000000000, 0.000000000000000, -1.00000000000000 ) );
#385 = DIRECTION( '', ( 0.000000000000000, 1.00000000000000, 0.000000000000000 ) );
#386 = CARTESIAN_POINT( '', ( 0.000000000000000, -9.00000000000000, 0.000000000000000 ) );
#387 = DIRECTION( '', ( 0.000000000000000, 1.00000000000000, 0.000000000000000 ) );
#388 = DIRECTION( '', ( 0.000000000000000, 0.000000000000000, -1.00000000000000 ) );
#389 = DIRECTION( '', ( -0.000000000000000, -1.00000000000000, -0.000000000000000 ) );
#390 = CARTESIAN_POINT( '', ( 0.000000000000000, -1.00000000000000, 0.000000000000000 ) );
#391 = DIRECTION( '', ( 0.000000000000000, 1.00000000000000, 0.000000000000000 ) );
#392 = DIRECTION( '', ( 0.000000000000000, 0.000000000000000, -1.00000000000000 ) );
#393 = DIRECTION( '', ( 8.65927457071935E-017, 0.707106781186548, -0.707106781186547 ) );
#394 = CARTESIAN_POINT( '', ( 0.000000000000000, -10.0000000000000, 0.000000000000000 ) );
#395 = DIRECTION( '', ( 0.000000000000000, 1.00000000000000, 0.000000000000000 ) );
#396 = DIRECTION( '', ( 0.000000000000000, 0.000000000000000, -1.00000000000000 ) );
#397 = DIRECTION( '', ( 8.65927457071935E-017, -0.707106781186548, -0.707106781186547 ) );
#398 = CARTESIAN_POINT( '', ( 0.000000000000000, -10.0000000000000, 0.000000000000000 ) );
#399 = DIRECTION( '', ( 0.000000000000000, 1.00000000000000, 0.000000000000000 ) );
#400 = DIRECTION( '', ( 0.000000000000000, 0.000000000000000, -1.00000000000000 ) );
#401 = CARTESIAN_POINT( '', ( 0.000000000000000, -9.00000000000000, 0.000000000000000 ) );
#402 = DIRECTION( '', ( 0.000000000000000, 1.00000000000000, 0.000000000000000 ) );
#403 = DIRECTION( '', ( 0.000000000000000, 0.000000000000000, -1.00000000000000 ) );
#404 = CARTESIAN_POINT( '', ( 0.000000000000000, -1.00000000000000, 0.000000000000000 ) );
#405 = DIRECTION( '', ( 0.000000000000000, 1.00000000000000, 0.000000000000000 ) );
#406 = DIRECTION( '', ( 0.000000000000000, 0.000000000000000, -1.00000000000000 ) );
#407 = CARTESIAN_POINT( '', ( 0.000000000000000, -1.00000000000000, 0.000000000000000 ) );
#408 = DIRECTION( '', ( 0.000000000000000, 1.00000000000000, 0.000000000000000 ) );
#409 = DIRECTION( '', ( 0.000000000000000, 0.000000000000000, -1.00000000000000 ) );
#410 = CARTESIAN_POINT( '', ( 0.000000000000000, 0.000000000000000, 0.000000000000000 ) );
#411 = DIRECTION( '', ( 0.000000000000000, 1.00000000000000, 0.000000000000000 ) );
#412 = DIRECTION( '', ( 0.000000000000000, 0.000000000000000, -1.00000000000000 ) );
#413 = CARTESIAN_POINT( '', ( 0.000000000000000, 0.000000000000000, 0.000000000000000 ) );
#414 = DIRECTION( '', ( 0.000000000000000, 1.00000000000000, 0.000000000000000 ) );
#415 = DIRECTION( '', ( 0.000000000000000, 0.000000000000000, -1.00000000000000 ) );
#416 = CARTESIAN_POINT( '', ( 0.000000000000000, 6.00000000000000, 0.000000000000000 ) );
#417 = DIRECTION( '', ( 0.000000000000000, 1.00000000000000, 0.000000000000000 ) );
#418 = DIRECTION( '', ( 0.000000000000000, 0.000000000000000, -1.00000000000000 ) );
#419 = CARTESIAN_POINT( '', ( 0.000000000000000, 8.00000000000000, 0.000000000000000 ) );
#420 = DIRECTION( '', ( 0.000000000000000, 1.00000000000000, 0.000000000000000 ) );
#421 = DIRECTION( '', ( 0.000000000000000, 0.000000000000000, -1.00000000000000 ) );
ENDSEC;
END-ISO-10303-21;
