ISO-10303-21;
HEADER;
FILE_DESCRIPTION( ( '' ), '1' );
FILE_NAME( 'C:/Users/Bollwitte/Desktop/987/K0293.208.stp', '2012-10-30T12:41:08', ( '' ), ( '' ), ' ', ' ', ' ' );
FILE_SCHEMA( ( 'CONFIG_CONTROL_DESIGN' ) );
ENDSEC;
DATA;
#1 = DESIGN_CONTEXT( '', #27, 'design' );
#2 = APPLICATION_PROTOCOL_DEFINITION( 'INTERNATIONAL STANDARD', 'config_control_design', 1994, #27 );
#3 = PRODUCT_CATEGORY_RELATIONSHIP( 'NONE', 'NONE', #28, #29 );
#4 = DATE_AND_TIME( #30, #31 );
#5 = DATE_TIME_ROLE( 'creation_date' );
#6 = DATE_TIME_ROLE( 'classification_date' );
#7 = PERSON_AND_ORGANIZATION_ROLE( 'creator' );
#8 = PERSON_AND_ORGANIZATION_ROLE( 'design_supplier' );
#9 = PERSON_AND_ORGANIZATION_ROLE( 'classification_officer' );
#10 = PERSON_AND_ORGANIZATION_ROLE( 'design_owner' );
#11 = APPROVAL_PERSON_ORGANIZATION( #32, #33, #34 );
#12 = APPROVAL_DATE_TIME( #4, #33 );
#13 = CC_DESIGN_APPROVAL( #33, ( #35, #36, #37 ) );
#14 = CC_DESIGN_DATE_AND_TIME_ASSIGNMENT( #4, #5, ( #37 ) );
#15 = CC_DESIGN_DATE_AND_TIME_ASSIGNMENT( #4, #6, ( #35 ) );
#16 = CC_DESIGN_PERSON_AND_ORGANIZATION_ASSIGNMENT( #32, #10, ( #38 ) );
#17 = CC_DESIGN_PERSON_AND_ORGANIZATION_ASSIGNMENT( #32, #7, ( #37 ) );
#18 = CC_DESIGN_PERSON_AND_ORGANIZATION_ASSIGNMENT( #32, #7, ( #36 ) );
#19 = CC_DESIGN_PERSON_AND_ORGANIZATION_ASSIGNMENT( #32, #8, ( #36 ) );
#20 = CC_DESIGN_SECURITY_CLASSIFICATION( #35, ( #36 ) );
#21 = CC_DESIGN_PERSON_AND_ORGANIZATION_ASSIGNMENT( #32, #9, ( #35 ) );
#22 = SHAPE_DEFINITION_REPRESENTATION( #39, #40 );
#23 =  ( GEOMETRIC_REPRESENTATION_CONTEXT( 3 )GLOBAL_UNCERTAINTY_ASSIGNED_CONTEXT( ( #43 ) )GLOBAL_UNIT_ASSIGNED_CONTEXT( ( #45, #46, #47 ) )REPRESENTATION_CONTEXT( 'NONE', 'WORKSPACE' ) );
#27 = APPLICATION_CONTEXT( 'CONFIGURATION CONTROLLED 3D DESIGNS OF MECHANICAL PARTS AND ASSEMBLIES' );
#28 = PRODUCT_CATEGORY( 'part', 'NONE' );
#29 = PRODUCT_RELATED_PRODUCT_CATEGORY( 'detail', ' ', ( #38 ) );
#30 = CALENDAR_DATE( 2012, 30, 9 );
#31 = LOCAL_TIME( 13, 41, 8.00000000000000, #49 );
#32 = PERSON_AND_ORGANIZATION( #50, #51 );
#33 = APPROVAL( #52, 'SOLID MODEL' );
#34 = APPROVAL_ROLE( 'APPROVED' );
#35 = SECURITY_CLASSIFICATION( '', '', #53 );
#36 = PRODUCT_DEFINITION_FORMATION_WITH_SPECIFIED_SOURCE( ' ', 'NONE', #38, .NOT_KNOWN. );
#37 = PRODUCT_DEFINITION( 'NONE', 'NONE', #36, #1 );
#38 = PRODUCT( '1', '1', 'PART-1-DESC', ( #54 ) );
#39 = PRODUCT_DEFINITION_SHAPE( 'NONE', 'NONE', #37 );
#40 = ADVANCED_BREP_SHAPE_REPRESENTATION( '1', ( #55, #56 ), #23 );
#43 = UNCERTAINTY_MEASURE_WITH_UNIT( LENGTH_MEASURE( 1.00000000000000E-006 ), #45, '', '' );
#45 =  ( CONVERSION_BASED_UNIT( 'MILLIMETRE', #59 )LENGTH_UNIT(  )NAMED_UNIT( #62 ) );
#46 =  ( NAMED_UNIT( #64 )PLANE_ANGLE_UNIT(  )SI_UNIT( $, .RADIAN. ) );
#47 =  ( NAMED_UNIT( #64 )SOLID_ANGLE_UNIT(  )SI_UNIT( $, .STERADIAN. ) );
#49 = COORDINATED_UNIVERSAL_TIME_OFFSET( 1, 0, .AHEAD. );
#50 = PERSON( '', 'UNSPECIFIED', $, $, $, $ );
#51 = ORGANIZATION( 'UNSPECIFIED', 'UNSPECIFIED', 'UNSPECIFIED' );
#52 = APPROVAL_STATUS( 'approved' );
#53 = SECURITY_CLASSIFICATION_LEVEL( 'unclassified' );
#54 = MECHANICAL_CONTEXT( '', #27, 'mechanical' );
#55 = MANIFOLD_SOLID_BREP( '1', #70 );
#56 = AXIS2_PLACEMENT_3D( '', #71, #72, #73 );
#59 = LENGTH_MEASURE_WITH_UNIT( LENGTH_MEASURE( 1.00000000000000 ), #74 );
#62 = DIMENSIONAL_EXPONENTS( 1.00000000000000, 0.000000000000000, 0.000000000000000, 0.000000000000000, 0.000000000000000, 0.000000000000000, 0.000000000000000 );
#64 = DIMENSIONAL_EXPONENTS( 0.000000000000000, 0.000000000000000, 0.000000000000000, 0.000000000000000, 0.000000000000000, 0.000000000000000, 0.000000000000000 );
#70 = CLOSED_SHELL( '', ( #75, #76, #77, #78, #79, #80, #81, #82, #83, #84, #85, #86, #87, #88, #89 ) );
#71 = CARTESIAN_POINT( '', ( 0.000000000000000, 0.000000000000000, 0.000000000000000 ) );
#72 = DIRECTION( '', ( 0.000000000000000, 0.000000000000000, 1.00000000000000 ) );
#73 = DIRECTION( '', ( 1.00000000000000, 0.000000000000000, 0.000000000000000 ) );
#74 =  ( NAMED_UNIT( #62 )LENGTH_UNIT(  )SI_UNIT( .MILLI., .METRE. ) );
#75 = ADVANCED_FACE( '', ( #91 ), #92, .T. );
#76 = ADVANCED_FACE( '', ( #93 ), #94, .T. );
#77 = ADVANCED_FACE( '', ( #95 ), #96, .F. );
#78 = ADVANCED_FACE( '', ( #97 ), #98, .T. );
#79 = ADVANCED_FACE( '', ( #99 ), #100, .T. );
#80 = ADVANCED_FACE( '', ( #101 ), #102, .T. );
#81 = ADVANCED_FACE( '', ( #103 ), #104, .T. );
#82 = ADVANCED_FACE( '', ( #105 ), #106, .T. );
#83 = ADVANCED_FACE( '', ( #107 ), #108, .T. );
#84 = ADVANCED_FACE( '', ( #109 ), #110, .T. );
#85 = ADVANCED_FACE( '', ( #111, #112 ), #113, .T. );
#86 = ADVANCED_FACE( '', ( #114 ), #115, .F. );
#87 = ADVANCED_FACE( '', ( #116 ), #117, .T. );
#88 = ADVANCED_FACE( '', ( #118 ), #119, .T. );
#89 = ADVANCED_FACE( '', ( #120 ), #121, .T. );
#91 = FACE_OUTER_BOUND( '', #122, .T. );
#92 = CONICAL_SURFACE( '', #123, 3.19615242270663, 0.261799387799149 );
#93 = FACE_OUTER_BOUND( '', #124, .T. );
#94 = CYLINDRICAL_SURFACE( '', #125, 4.00000000000000 );
#95 = FACE_OUTER_BOUND( '', #126, .T. );
#96 = TOROIDAL_SURFACE( '', #127, 3.50000000000000, 0.500000000000004 );
#97 = FACE_OUTER_BOUND( '', #128, .T. );
#98 = CONICAL_SURFACE( '', #129, 2.60000000000000, 0.785398163397446 );
#99 = FACE_OUTER_BOUND( '', #130, .T. );
#100 = CYLINDRICAL_SURFACE( '', #131, 3.00000000000000 );
#101 = FACE_OUTER_BOUND( '', #132, .T. );
#102 = CONICAL_SURFACE( '', #133, 2.78564064605510, 0.261799387799149 );
#103 = FACE_OUTER_BOUND( '', #134, .T. );
#104 = PLANE( '', #135 );
#105 = FACE_OUTER_BOUND( '', #136, .T. );
#106 = CONICAL_SURFACE( '', #137, 2.78564064605510, 0.261799387799149 );
#107 = FACE_OUTER_BOUND( '', #138, .T. );
#108 = CYLINDRICAL_SURFACE( '', #139, 3.00000000000000 );
#109 = FACE_OUTER_BOUND( '', #140, .T. );
#110 = CONICAL_SURFACE( '', #141, 2.60000000000000, 0.785398163397446 );
#111 = FACE_OUTER_BOUND( '', #142, .T. );
#112 = FACE_BOUND( '', #143, .T. );
#113 = PLANE( '', #144 );
#114 = FACE_OUTER_BOUND( '', #145, .T. );
#115 = TOROIDAL_SURFACE( '', #146, 3.50000000000000, 0.500000000000004 );
#116 = FACE_OUTER_BOUND( '', #147, .T. );
#117 = CYLINDRICAL_SURFACE( '', #148, 4.00000000000000 );
#118 = FACE_OUTER_BOUND( '', #149, .T. );
#119 = CONICAL_SURFACE( '', #150, 3.19615242270663, 0.261799387799149 );
#120 = FACE_OUTER_BOUND( '', #151, .T. );
#121 = PLANE( '', #152 );
#122 = EDGE_LOOP( '', ( #153, #154, #155, #156 ) );
#123 = AXIS2_PLACEMENT_3D( '', #157, #158, #159 );
#124 = EDGE_LOOP( '', ( #160, #161, #162, #163 ) );
#125 = AXIS2_PLACEMENT_3D( '', #164, #165, #166 );
#126 = EDGE_LOOP( '', ( #167, #168, #169, #170 ) );
#127 = AXIS2_PLACEMENT_3D( '', #171, #172, #173 );
#128 = EDGE_LOOP( '', ( #174, #175, #176, #177 ) );
#129 = AXIS2_PLACEMENT_3D( '', #178, #179, #180 );
#130 = EDGE_LOOP( '', ( #181, #182, #183, #184 ) );
#131 = AXIS2_PLACEMENT_3D( '', #185, #186, #187 );
#132 = EDGE_LOOP( '', ( #188, #189, #190, #191 ) );
#133 = AXIS2_PLACEMENT_3D( '', #192, #193, #194 );
#134 = EDGE_LOOP( '', ( #195, #196 ) );
#135 = AXIS2_PLACEMENT_3D( '', #197, #198, #199 );
#136 = EDGE_LOOP( '', ( #200, #201, #202, #203 ) );
#137 = AXIS2_PLACEMENT_3D( '', #204, #205, #206 );
#138 = EDGE_LOOP( '', ( #207, #208, #209, #210 ) );
#139 = AXIS2_PLACEMENT_3D( '', #211, #212, #213 );
#140 = EDGE_LOOP( '', ( #214, #215, #216, #217 ) );
#141 = AXIS2_PLACEMENT_3D( '', #218, #219, #220 );
#142 = EDGE_LOOP( '', ( #221, #222 ) );
#143 = EDGE_LOOP( '', ( #223, #224 ) );
#144 = AXIS2_PLACEMENT_3D( '', #225, #226, #227 );
#145 = EDGE_LOOP( '', ( #228, #229, #230, #231 ) );
#146 = AXIS2_PLACEMENT_3D( '', #232, #233, #234 );
#147 = EDGE_LOOP( '', ( #235, #236, #237, #238 ) );
#148 = AXIS2_PLACEMENT_3D( '', #239, #240, #241 );
#149 = EDGE_LOOP( '', ( #242, #243, #244, #245 ) );
#150 = AXIS2_PLACEMENT_3D( '', #246, #247, #248 );
#151 = EDGE_LOOP( '', ( #249, #250 ) );
#152 = AXIS2_PLACEMENT_3D( '', #251, #252, #253 );
#153 = ORIENTED_EDGE( '', *, *, #254, .F. );
#154 = ORIENTED_EDGE( '', *, *, #255, .T. );
#155 = ORIENTED_EDGE( '', *, *, #256, .F. );
#156 = ORIENTED_EDGE( '', *, *, #257, .F. );
#157 = CARTESIAN_POINT( '', ( 0.000000000000000, 7.00000000000000, 0.000000000000000 ) );
#158 = DIRECTION( '', ( -0.000000000000000, -1.00000000000000, -0.000000000000000 ) );
#159 = DIRECTION( '', ( 0.000000000000000, 0.000000000000000, -1.00000000000000 ) );
#160 = ORIENTED_EDGE( '', *, *, #258, .F. );
#161 = ORIENTED_EDGE( '', *, *, #259, .T. );
#162 = ORIENTED_EDGE( '', *, *, #260, .F. );
#163 = ORIENTED_EDGE( '', *, *, #255, .F. );
#164 = CARTESIAN_POINT( '', ( 0.000000000000000, 2.00000000000000, 0.000000000000000 ) );
#165 = DIRECTION( '', ( -0.000000000000000, -1.00000000000000, -0.000000000000000 ) );
#166 = DIRECTION( '', ( 0.000000000000000, 0.000000000000000, -1.00000000000000 ) );
#167 = ORIENTED_EDGE( '', *, *, #261, .F. );
#168 = ORIENTED_EDGE( '', *, *, #262, .T. );
#169 = ORIENTED_EDGE( '', *, *, #263, .F. );
#170 = ORIENTED_EDGE( '', *, *, #259, .F. );
#171 = CARTESIAN_POINT( '', ( 0.000000000000000, 3.55271367880045E-015, 0.000000000000000 ) );
#172 = DIRECTION( '', ( 0.000000000000000, 1.00000000000000, 0.000000000000000 ) );
#173 = DIRECTION( '', ( 0.000000000000000, 0.000000000000000, 1.00000000000000 ) );
#174 = ORIENTED_EDGE( '', *, *, #264, .F. );
#175 = ORIENTED_EDGE( '', *, *, #265, .T. );
#176 = ORIENTED_EDGE( '', *, *, #266, .F. );
#177 = ORIENTED_EDGE( '', *, *, #267, .F. );
#178 = CARTESIAN_POINT( '', ( 0.000000000000000, -0.399999999999997, 0.000000000000000 ) );
#179 = DIRECTION( '', ( -0.000000000000000, -1.00000000000000, -0.000000000000000 ) );
#180 = DIRECTION( '', ( 0.000000000000000, 0.000000000000000, -1.00000000000000 ) );
#181 = ORIENTED_EDGE( '', *, *, #268, .F. );
#182 = ORIENTED_EDGE( '', *, *, #269, .T. );
#183 = ORIENTED_EDGE( '', *, *, #270, .F. );
#184 = ORIENTED_EDGE( '', *, *, #265, .F. );
#185 = CARTESIAN_POINT( '', ( 0.000000000000000, -4.10000000000000, 0.000000000000000 ) );
#186 = DIRECTION( '', ( -0.000000000000000, -1.00000000000000, -0.000000000000000 ) );
#187 = DIRECTION( '', ( 0.000000000000000, 0.000000000000000, -1.00000000000000 ) );
#188 = ORIENTED_EDGE( '', *, *, #271, .F. );
#189 = ORIENTED_EDGE( '', *, *, #272, .T. );
#190 = ORIENTED_EDGE( '', *, *, #273, .F. );
#191 = ORIENTED_EDGE( '', *, *, #269, .F. );
#192 = CARTESIAN_POINT( '', ( 0.000000000000000, -8.20000000000000, 0.000000000000000 ) );
#193 = DIRECTION( '', ( 0.000000000000000, 1.00000000000000, 0.000000000000000 ) );
#194 = DIRECTION( '', ( 0.000000000000000, 0.000000000000000, -1.00000000000000 ) );
#195 = ORIENTED_EDGE( '', *, *, #272, .F. );
#196 = ORIENTED_EDGE( '', *, *, #274, .F. );
#197 = CARTESIAN_POINT( '', ( 0.000000000000000, -9.00000000000000, -1.28564064605510 ) );
#198 = DIRECTION( '', ( 0.000000000000000, -1.00000000000000, 0.000000000000000 ) );
#199 = DIRECTION( '', ( 0.000000000000000, 0.000000000000000, 1.00000000000000 ) );
#200 = ORIENTED_EDGE( '', *, *, #271, .T. );
#201 = ORIENTED_EDGE( '', *, *, #275, .F. );
#202 = ORIENTED_EDGE( '', *, *, #273, .T. );
#203 = ORIENTED_EDGE( '', *, *, #274, .T. );
#204 = CARTESIAN_POINT( '', ( 0.000000000000000, -8.20000000000000, 0.000000000000000 ) );
#205 = DIRECTION( '', ( 0.000000000000000, 1.00000000000000, 0.000000000000000 ) );
#206 = DIRECTION( '', ( 0.000000000000000, 0.000000000000000, -1.00000000000000 ) );
#207 = ORIENTED_EDGE( '', *, *, #268, .T. );
#208 = ORIENTED_EDGE( '', *, *, #276, .F. );
#209 = ORIENTED_EDGE( '', *, *, #270, .T. );
#210 = ORIENTED_EDGE( '', *, *, #275, .T. );
#211 = CARTESIAN_POINT( '', ( 0.000000000000000, -4.10000000000000, 0.000000000000000 ) );
#212 = DIRECTION( '', ( -0.000000000000000, -1.00000000000000, -0.000000000000000 ) );
#213 = DIRECTION( '', ( 0.000000000000000, 0.000000000000000, -1.00000000000000 ) );
#214 = ORIENTED_EDGE( '', *, *, #264, .T. );
#215 = ORIENTED_EDGE( '', *, *, #277, .F. );
#216 = ORIENTED_EDGE( '', *, *, #266, .T. );
#217 = ORIENTED_EDGE( '', *, *, #276, .T. );
#218 = CARTESIAN_POINT( '', ( 0.000000000000000, -0.399999999999997, 0.000000000000000 ) );
#219 = DIRECTION( '', ( -0.000000000000000, -1.00000000000000, -0.000000000000000 ) );
#220 = DIRECTION( '', ( 0.000000000000000, 0.000000000000000, -1.00000000000000 ) );
#221 = ORIENTED_EDGE( '', *, *, #262, .F. );
#222 = ORIENTED_EDGE( '', *, *, #278, .F. );
#223 = ORIENTED_EDGE( '', *, *, #267, .T. );
#224 = ORIENTED_EDGE( '', *, *, #277, .T. );
#225 = CARTESIAN_POINT( '', ( 0.000000000000000, 3.58332883764601E-015, -2.60000000000000 ) );
#226 = DIRECTION( '', ( -0.000000000000000, -1.00000000000000, -8.95832209411514E-015 ) );
#227 = DIRECTION( '', ( 0.000000000000000, -8.95832209411514E-015, 1.00000000000000 ) );
#228 = ORIENTED_EDGE( '', *, *, #261, .T. );
#229 = ORIENTED_EDGE( '', *, *, #279, .F. );
#230 = ORIENTED_EDGE( '', *, *, #263, .T. );
#231 = ORIENTED_EDGE( '', *, *, #278, .T. );
#232 = CARTESIAN_POINT( '', ( 0.000000000000000, 3.55271367880045E-015, 0.000000000000000 ) );
#233 = DIRECTION( '', ( 0.000000000000000, 1.00000000000000, 0.000000000000000 ) );
#234 = DIRECTION( '', ( 0.000000000000000, 0.000000000000000, 1.00000000000000 ) );
#235 = ORIENTED_EDGE( '', *, *, #258, .T. );
#236 = ORIENTED_EDGE( '', *, *, #280, .F. );
#237 = ORIENTED_EDGE( '', *, *, #260, .T. );
#238 = ORIENTED_EDGE( '', *, *, #279, .T. );
#239 = CARTESIAN_POINT( '', ( 0.000000000000000, 2.00000000000000, 0.000000000000000 ) );
#240 = DIRECTION( '', ( -0.000000000000000, -1.00000000000000, -0.000000000000000 ) );
#241 = DIRECTION( '', ( 0.000000000000000, 0.000000000000000, -1.00000000000000 ) );
#242 = ORIENTED_EDGE( '', *, *, #254, .T. );
#243 = ORIENTED_EDGE( '', *, *, #281, .F. );
#244 = ORIENTED_EDGE( '', *, *, #256, .T. );
#245 = ORIENTED_EDGE( '', *, *, #280, .T. );
#246 = CARTESIAN_POINT( '', ( 0.000000000000000, 7.00000000000000, 0.000000000000000 ) );
#247 = DIRECTION( '', ( -0.000000000000000, -1.00000000000000, -0.000000000000000 ) );
#248 = DIRECTION( '', ( 0.000000000000000, 0.000000000000000, -1.00000000000000 ) );
#249 = ORIENTED_EDGE( '', *, *, #257, .T. );
#250 = ORIENTED_EDGE( '', *, *, #281, .T. );
#251 = CARTESIAN_POINT( '', ( 0.000000000000000, 10.0000000000000, -1.19615242270663 ) );
#252 = DIRECTION( '', ( 0.000000000000000, 1.00000000000000, 0.000000000000000 ) );
#253 = DIRECTION( '', ( 0.000000000000000, 0.000000000000000, -1.00000000000000 ) );
#254 = EDGE_CURVE( '', #282, #283, #284, .T. );
#255 = EDGE_CURVE( '', #282, #285, #286, .T. );
#256 = EDGE_CURVE( '', #287, #285, #288, .T. );
#257 = EDGE_CURVE( '', #283, #287, #289, .T. );
#258 = EDGE_CURVE( '', #290, #282, #291, .T. );
#259 = EDGE_CURVE( '', #290, #292, #293, .T. );
#260 = EDGE_CURVE( '', #285, #292, #294, .T. );
#261 = EDGE_CURVE( '', #295, #290, #296, .T. );
#262 = EDGE_CURVE( '', #295, #297, #298, .T. );
#263 = EDGE_CURVE( '', #292, #297, #299, .T. );
#264 = EDGE_CURVE( '', #300, #301, #302, .T. );
#265 = EDGE_CURVE( '', #300, #303, #304, .T. );
#266 = EDGE_CURVE( '', #305, #303, #306, .T. );
#267 = EDGE_CURVE( '', #301, #305, #307, .T. );
#268 = EDGE_CURVE( '', #308, #300, #309, .T. );
#269 = EDGE_CURVE( '', #308, #310, #311, .T. );
#270 = EDGE_CURVE( '', #303, #310, #312, .T. );
#271 = EDGE_CURVE( '', #313, #308, #314, .T. );
#272 = EDGE_CURVE( '', #313, #315, #316, .T. );
#273 = EDGE_CURVE( '', #310, #315, #317, .T. );
#274 = EDGE_CURVE( '', #315, #313, #318, .T. );
#275 = EDGE_CURVE( '', #310, #308, #319, .T. );
#276 = EDGE_CURVE( '', #303, #300, #320, .T. );
#277 = EDGE_CURVE( '', #305, #301, #321, .T. );
#278 = EDGE_CURVE( '', #297, #295, #322, .T. );
#279 = EDGE_CURVE( '', #292, #290, #323, .T. );
#280 = EDGE_CURVE( '', #285, #282, #324, .T. );
#281 = EDGE_CURVE( '', #287, #283, #325, .T. );
#282 = VERTEX_POINT( '', #326 );
#283 = VERTEX_POINT( '', #327 );
#284 = LINE( '', #328, #329 );
#285 = VERTEX_POINT( '', #330 );
#286 = CIRCLE( '', #331, 4.00000000000000 );
#287 = VERTEX_POINT( '', #332 );
#288 = LINE( '', #333, #334 );
#289 = CIRCLE( '', #335, 2.39230484541326 );
#290 = VERTEX_POINT( '', #336 );
#291 = LINE( '', #337, #338 );
#292 = VERTEX_POINT( '', #339 );
#293 = CIRCLE( '', #340, 4.00000000000000 );
#294 = LINE( '', #341, #342 );
#295 = VERTEX_POINT( '', #343 );
#296 = CIRCLE( '', #344, 0.500000000000004 );
#297 = VERTEX_POINT( '', #345 );
#298 = CIRCLE( '', #346, 2.99999999999999 );
#299 = CIRCLE( '', #347, 0.500000000000004 );
#300 = VERTEX_POINT( '', #348 );
#301 = VERTEX_POINT( '', #349 );
#302 = LINE( '', #350, #351 );
#303 = VERTEX_POINT( '', #352 );
#304 = CIRCLE( '', #353, 2.99999999999999 );
#305 = VERTEX_POINT( '', #354 );
#306 = LINE( '', #355, #356 );
#307 = CIRCLE( '', #357, 2.20000000000000 );
#308 = VERTEX_POINT( '', #358 );
#309 = LINE( '', #359, #360 );
#310 = VERTEX_POINT( '', #361 );
#311 = CIRCLE( '', #362, 3.00000000000000 );
#312 = LINE( '', #363, #364 );
#313 = VERTEX_POINT( '', #365 );
#314 = LINE( '', #366, #367 );
#315 = VERTEX_POINT( '', #368 );
#316 = CIRCLE( '', #369, 2.57128129211020 );
#317 = LINE( '', #370, #371 );
#318 = CIRCLE( '', #372, 2.57128129211020 );
#319 = CIRCLE( '', #373, 3.00000000000000 );
#320 = CIRCLE( '', #374, 2.99999999999999 );
#321 = CIRCLE( '', #375, 2.20000000000000 );
#322 = CIRCLE( '', #376, 2.99999999999999 );
#323 = CIRCLE( '', #377, 4.00000000000000 );
#324 = CIRCLE( '', #378, 4.00000000000000 );
#325 = CIRCLE( '', #379, 2.39230484541326 );
#326 = CARTESIAN_POINT( '', ( 0.000000000000000, 4.00000000000000, -4.00000000000000 ) );
#327 = CARTESIAN_POINT( '', ( 0.000000000000000, 10.0000000000000, -2.39230484541326 ) );
#328 = CARTESIAN_POINT( '', ( 3.91402856463133E-016, 7.00000000000000, -3.19615242270663 ) );
#329 = VECTOR( '', #380, 1.00000000000000 );
#330 = CARTESIAN_POINT( '', ( -4.89842541528951E-016, 4.00000000000000, 4.00000000000000 ) );
#331 = AXIS2_PLACEMENT_3D( '', #381, #382, #383 );
#332 = CARTESIAN_POINT( '', ( -2.92963171397314E-016, 10.0000000000000, 2.39230484541326 ) );
#333 = CARTESIAN_POINT( '', ( -3.91402856463133E-016, 7.00000000000000, 3.19615242270663 ) );
#334 = VECTOR( '', #384, 1.00000000000000 );
#335 = AXIS2_PLACEMENT_3D( '', #385, #386, #387 );
#336 = CARTESIAN_POINT( '', ( 0.000000000000000, 0.000000000000000, -4.00000000000000 ) );
#337 = CARTESIAN_POINT( '', ( 4.89842541528951E-016, 2.00000000000000, -4.00000000000000 ) );
#338 = VECTOR( '', #388, 1.00000000000000 );
#339 = CARTESIAN_POINT( '', ( -4.89842541528951E-016, 0.000000000000000, 4.00000000000000 ) );
#340 = AXIS2_PLACEMENT_3D( '', #389, #390, #391 );
#341 = CARTESIAN_POINT( '', ( -4.89842541528951E-016, 2.00000000000000, 4.00000000000000 ) );
#342 = VECTOR( '', #392, 1.00000000000000 );
#343 = CARTESIAN_POINT( '', ( 0.000000000000000, 7.16665767529202E-015, -2.99999999999999 ) );
#344 = AXIS2_PLACEMENT_3D( '', #393, #394, #395 );
#345 = CARTESIAN_POINT( '', ( -3.67381906146712E-016, 7.10542735760100E-015, 2.99999999999999 ) );
#346 = AXIS2_PLACEMENT_3D( '', #396, #397, #398 );
#347 = AXIS2_PLACEMENT_3D( '', #399, #400, #401 );
#348 = CARTESIAN_POINT( '', ( 0.000000000000000, -0.799999999999994, -2.99999999999999 ) );
#349 = CARTESIAN_POINT( '', ( 0.000000000000000, 0.000000000000000, -2.20000000000000 ) );
#350 = CARTESIAN_POINT( '', ( 3.18397651993818E-016, -0.399999999999997, -2.60000000000000 ) );
#351 = VECTOR( '', #402, 1.00000000000000 );
#352 = CARTESIAN_POINT( '', ( -3.67381906146712E-016, -0.799999999999994, 2.99999999999999 ) );
#353 = AXIS2_PLACEMENT_3D( '', #403, #404, #405 );
#354 = CARTESIAN_POINT( '', ( -2.69413397840923E-016, 0.000000000000000, 2.20000000000000 ) );
#355 = CARTESIAN_POINT( '', ( -3.18397651993818E-016, -0.399999999999997, 2.60000000000000 ) );
#356 = VECTOR( '', #406, 1.00000000000000 );
#357 = AXIS2_PLACEMENT_3D( '', #407, #408, #409 );
#358 = CARTESIAN_POINT( '', ( 0.000000000000000, -7.40000000000000, -3.00000000000000 ) );
#359 = CARTESIAN_POINT( '', ( 3.67381906146713E-016, -4.10000000000000, -3.00000000000000 ) );
#360 = VECTOR( '', #410, 1.00000000000000 );
#361 = CARTESIAN_POINT( '', ( -3.67381906146713E-016, -7.40000000000000, 3.00000000000000 ) );
#362 = AXIS2_PLACEMENT_3D( '', #411, #412, #413 );
#363 = CARTESIAN_POINT( '', ( -3.67381906146713E-016, -4.10000000000000, 3.00000000000000 ) );
#364 = VECTOR( '', #414, 1.00000000000000 );
#365 = CARTESIAN_POINT( '', ( 0.000000000000000, -9.00000000000000, -2.57128129211020 ) );
#366 = CARTESIAN_POINT( '', ( 3.41131323462495E-016, -8.20000000000000, -2.78564064605510 ) );
#367 = VECTOR( '', #415, 1.00000000000000 );
#368 = CARTESIAN_POINT( '', ( -3.14880740778277E-016, -9.00000000000000, 2.57128129211020 ) );
#369 = AXIS2_PLACEMENT_3D( '', #416, #417, #418 );
#370 = CARTESIAN_POINT( '', ( -3.41131323462495E-016, -8.20000000000000, 2.78564064605510 ) );
#371 = VECTOR( '', #419, 1.00000000000000 );
#372 = AXIS2_PLACEMENT_3D( '', #420, #421, #422 );
#373 = AXIS2_PLACEMENT_3D( '', #423, #424, #425 );
#374 = AXIS2_PLACEMENT_3D( '', #426, #427, #428 );
#375 = AXIS2_PLACEMENT_3D( '', #429, #430, #431 );
#376 = AXIS2_PLACEMENT_3D( '', #432, #433, #434 );
#377 = AXIS2_PLACEMENT_3D( '', #435, #436, #437 );
#378 = AXIS2_PLACEMENT_3D( '', #438, #439, #440 );
#379 = AXIS2_PLACEMENT_3D( '', #441, #442, #443 );
#380 = DIRECTION( '', ( -3.16951447122787E-017, 0.965925826289068, 0.258819045102521 ) );
#381 = CARTESIAN_POINT( '', ( 0.000000000000000, 4.00000000000000, 0.000000000000000 ) );
#382 = DIRECTION( '', ( 0.000000000000000, 1.00000000000000, 0.000000000000000 ) );
#383 = DIRECTION( '', ( 0.000000000000000, 0.000000000000000, -1.00000000000000 ) );
#384 = DIRECTION( '', ( -3.16951447122787E-017, -0.965925826289068, 0.258819045102521 ) );
#385 = CARTESIAN_POINT( '', ( 0.000000000000000, 10.0000000000000, 0.000000000000000 ) );
#386 = DIRECTION( '', ( 0.000000000000000, 1.00000000000000, 0.000000000000000 ) );
#387 = DIRECTION( '', ( 0.000000000000000, 0.000000000000000, -1.00000000000000 ) );
#388 = DIRECTION( '', ( 0.000000000000000, 1.00000000000000, 0.000000000000000 ) );
#389 = CARTESIAN_POINT( '', ( 0.000000000000000, 0.000000000000000, 0.000000000000000 ) );
#390 = DIRECTION( '', ( 0.000000000000000, 1.00000000000000, 0.000000000000000 ) );
#391 = DIRECTION( '', ( 0.000000000000000, 0.000000000000000, -1.00000000000000 ) );
#392 = DIRECTION( '', ( -0.000000000000000, -1.00000000000000, -0.000000000000000 ) );
#393 = CARTESIAN_POINT( '', ( 4.28612223837832E-016, 3.55271367880045E-015, -3.50000000000000 ) );
#394 = DIRECTION( '', ( -1.00000000000000, 0.000000000000000, -1.22460635382238E-016 ) );
#395 = DIRECTION( '', ( 1.22460635382238E-016, -0.000000000000000, -1.00000000000000 ) );
#396 = CARTESIAN_POINT( '', ( 0.000000000000000, 7.10542735760100E-015, 0.000000000000000 ) );
#397 = DIRECTION( '', ( 0.000000000000000, 1.00000000000000, 0.000000000000000 ) );
#398 = DIRECTION( '', ( 0.000000000000000, 0.000000000000000, -1.00000000000000 ) );
#399 = CARTESIAN_POINT( '', ( -4.28612223837832E-016, 3.55271367880045E-015, 3.50000000000000 ) );
#400 = DIRECTION( '', ( -1.00000000000000, 0.000000000000000, -1.22460635382238E-016 ) );
#401 = DIRECTION( '', ( -1.22460635382238E-016, 0.000000000000000, 1.00000000000000 ) );
#402 = DIRECTION( '', ( -8.65927457071934E-017, 0.707106781186549, 0.707106781186546 ) );
#403 = CARTESIAN_POINT( '', ( 0.000000000000000, -0.799999999999994, 0.000000000000000 ) );
#404 = DIRECTION( '', ( 0.000000000000000, 1.00000000000000, 0.000000000000000 ) );
#405 = DIRECTION( '', ( 0.000000000000000, 0.000000000000000, -1.00000000000000 ) );
#406 = DIRECTION( '', ( -8.65927457071934E-017, -0.707106781186549, 0.707106781186546 ) );
#407 = CARTESIAN_POINT( '', ( 0.000000000000000, 0.000000000000000, 0.000000000000000 ) );
#408 = DIRECTION( '', ( 0.000000000000000, 1.00000000000000, 0.000000000000000 ) );
#409 = DIRECTION( '', ( 0.000000000000000, 0.000000000000000, -1.00000000000000 ) );
#410 = DIRECTION( '', ( 0.000000000000000, 1.00000000000000, 0.000000000000000 ) );
#411 = CARTESIAN_POINT( '', ( 0.000000000000000, -7.40000000000000, 0.000000000000000 ) );
#412 = DIRECTION( '', ( 0.000000000000000, 1.00000000000000, 0.000000000000000 ) );
#413 = DIRECTION( '', ( 0.000000000000000, 0.000000000000000, -1.00000000000000 ) );
#414 = DIRECTION( '', ( -0.000000000000000, -1.00000000000000, -0.000000000000000 ) );
#415 = DIRECTION( '', ( 3.16951447122787E-017, 0.965925826289068, -0.258819045102521 ) );
#416 = CARTESIAN_POINT( '', ( 0.000000000000000, -9.00000000000000, 0.000000000000000 ) );
#417 = DIRECTION( '', ( 0.000000000000000, 1.00000000000000, 0.000000000000000 ) );
#418 = DIRECTION( '', ( 0.000000000000000, 0.000000000000000, -1.00000000000000 ) );
#419 = DIRECTION( '', ( 3.16951447122787E-017, -0.965925826289068, -0.258819045102521 ) );
#420 = CARTESIAN_POINT( '', ( 0.000000000000000, -9.00000000000000, 0.000000000000000 ) );
#421 = DIRECTION( '', ( 0.000000000000000, 1.00000000000000, 0.000000000000000 ) );
#422 = DIRECTION( '', ( 0.000000000000000, 0.000000000000000, -1.00000000000000 ) );
#423 = CARTESIAN_POINT( '', ( 0.000000000000000, -7.40000000000000, 0.000000000000000 ) );
#424 = DIRECTION( '', ( 0.000000000000000, 1.00000000000000, 0.000000000000000 ) );
#425 = DIRECTION( '', ( 0.000000000000000, 0.000000000000000, -1.00000000000000 ) );
#426 = CARTESIAN_POINT( '', ( 0.000000000000000, -0.799999999999994, 0.000000000000000 ) );
#427 = DIRECTION( '', ( 0.000000000000000, 1.00000000000000, 0.000000000000000 ) );
#428 = DIRECTION( '', ( 0.000000000000000, 0.000000000000000, -1.00000000000000 ) );
#429 = CARTESIAN_POINT( '', ( 0.000000000000000, 0.000000000000000, 0.000000000000000 ) );
#430 = DIRECTION( '', ( 0.000000000000000, 1.00000000000000, 0.000000000000000 ) );
#431 = DIRECTION( '', ( 0.000000000000000, 0.000000000000000, -1.00000000000000 ) );
#432 = CARTESIAN_POINT( '', ( 0.000000000000000, 7.10542735760100E-015, 0.000000000000000 ) );
#433 = DIRECTION( '', ( 0.000000000000000, 1.00000000000000, 0.000000000000000 ) );
#434 = DIRECTION( '', ( 0.000000000000000, 0.000000000000000, -1.00000000000000 ) );
#435 = CARTESIAN_POINT( '', ( 0.000000000000000, 0.000000000000000, 0.000000000000000 ) );
#436 = DIRECTION( '', ( 0.000000000000000, 1.00000000000000, 0.000000000000000 ) );
#437 = DIRECTION( '', ( 0.000000000000000, 0.000000000000000, -1.00000000000000 ) );
#438 = CARTESIAN_POINT( '', ( 0.000000000000000, 4.00000000000000, 0.000000000000000 ) );
#439 = DIRECTION( '', ( 0.000000000000000, 1.00000000000000, 0.000000000000000 ) );
#440 = DIRECTION( '', ( 0.000000000000000, 0.000000000000000, -1.00000000000000 ) );
#441 = CARTESIAN_POINT( '', ( 0.000000000000000, 10.0000000000000, 0.000000000000000 ) );
#442 = DIRECTION( '', ( 0.000000000000000, 1.00000000000000, 0.000000000000000 ) );
#443 = DIRECTION( '', ( 0.000000000000000, 0.000000000000000, -1.00000000000000 ) );
ENDSEC;
END-ISO-10303-21;
