ISO-10303-21;
HEADER;
FILE_DESCRIPTION( ( '' ), '1' );
FILE_NAME( 'C:/Users/Bollwitte/Desktop/987/K0104.10.stp', '2012-10-30T11:21:27', ( '' ), ( '' ), ' ', ' ', ' ' );
FILE_SCHEMA( ( 'CONFIG_CONTROL_DESIGN' ) );
ENDSEC;
DATA;
#1 = DESIGN_CONTEXT( '', #27, 'design' );
#2 = APPLICATION_PROTOCOL_DEFINITION( 'INTERNATIONAL STANDARD', 'config_control_design', 1994, #27 );
#3 = PRODUCT_CATEGORY_RELATIONSHIP( 'NONE', 'NONE', #28, #29 );
#4 = DATE_AND_TIME( #30, #31 );
#5 = DATE_TIME_ROLE( 'creation_date' );
#6 = DATE_TIME_ROLE( 'classification_date' );
#7 = PERSON_AND_ORGANIZATION_ROLE( 'creator' );
#8 = PERSON_AND_ORGANIZATION_ROLE( 'design_supplier' );
#9 = PERSON_AND_ORGANIZATION_ROLE( 'classification_officer' );
#10 = PERSON_AND_ORGANIZATION_ROLE( 'design_owner' );
#11 = APPROVAL_PERSON_ORGANIZATION( #32, #33, #34 );
#12 = APPROVAL_DATE_TIME( #4, #33 );
#13 = CC_DESIGN_APPROVAL( #33, ( #35, #36, #37 ) );
#14 = CC_DESIGN_DATE_AND_TIME_ASSIGNMENT( #4, #5, ( #37 ) );
#15 = CC_DESIGN_DATE_AND_TIME_ASSIGNMENT( #4, #6, ( #35 ) );
#16 = CC_DESIGN_PERSON_AND_ORGANIZATION_ASSIGNMENT( #32, #10, ( #38 ) );
#17 = CC_DESIGN_PERSON_AND_ORGANIZATION_ASSIGNMENT( #32, #7, ( #37 ) );
#18 = CC_DESIGN_PERSON_AND_ORGANIZATION_ASSIGNMENT( #32, #7, ( #36 ) );
#19 = CC_DESIGN_PERSON_AND_ORGANIZATION_ASSIGNMENT( #32, #8, ( #36 ) );
#20 = CC_DESIGN_SECURITY_CLASSIFICATION( #35, ( #36 ) );
#21 = CC_DESIGN_PERSON_AND_ORGANIZATION_ASSIGNMENT( #32, #9, ( #35 ) );
#22 = SHAPE_DEFINITION_REPRESENTATION( #39, #40 );
#23 =  ( GEOMETRIC_REPRESENTATION_CONTEXT( 3 )GLOBAL_UNCERTAINTY_ASSIGNED_CONTEXT( ( #43 ) )GLOBAL_UNIT_ASSIGNED_CONTEXT( ( #45, #46, #47 ) )REPRESENTATION_CONTEXT( 'NONE', 'WORKSPACE' ) );
#27 = APPLICATION_CONTEXT( 'CONFIGURATION CONTROLLED 3D DESIGNS OF MECHANICAL PARTS AND ASSEMBLIES' );
#28 = PRODUCT_CATEGORY( 'part', 'NONE' );
#29 = PRODUCT_RELATED_PRODUCT_CATEGORY( 'detail', ' ', ( #38 ) );
#30 = CALENDAR_DATE( 2012, 30, 9 );
#31 = LOCAL_TIME( 12, 21, 27.0000000000000, #49 );
#32 = PERSON_AND_ORGANIZATION( #50, #51 );
#33 = APPROVAL( #52, 'SOLID MODEL' );
#34 = APPROVAL_ROLE( 'APPROVED' );
#35 = SECURITY_CLASSIFICATION( '', '', #53 );
#36 = PRODUCT_DEFINITION_FORMATION_WITH_SPECIFIED_SOURCE( ' ', 'NONE', #38, .NOT_KNOWN. );
#37 = PRODUCT_DEFINITION( 'NONE', 'NONE', #36, #1 );
#38 = PRODUCT( '1', '1', 'PART-1-DESC', ( #54 ) );
#39 = PRODUCT_DEFINITION_SHAPE( 'NONE', 'NONE', #37 );
#40 = ADVANCED_BREP_SHAPE_REPRESENTATION( '1', ( #55, #56 ), #23 );
#43 = UNCERTAINTY_MEASURE_WITH_UNIT( LENGTH_MEASURE( 1.00000000000000E-006 ), #45, '', '' );
#45 =  ( CONVERSION_BASED_UNIT( 'MILLIMETRE', #59 )LENGTH_UNIT(  )NAMED_UNIT( #62 ) );
#46 =  ( NAMED_UNIT( #64 )PLANE_ANGLE_UNIT(  )SI_UNIT( $, .RADIAN. ) );
#47 =  ( NAMED_UNIT( #64 )SOLID_ANGLE_UNIT(  )SI_UNIT( $, .STERADIAN. ) );
#49 = COORDINATED_UNIVERSAL_TIME_OFFSET( 1, 0, .AHEAD. );
#50 = PERSON( '', 'UNSPECIFIED', $, $, $, $ );
#51 = ORGANIZATION( 'UNSPECIFIED', 'UNSPECIFIED', 'UNSPECIFIED' );
#52 = APPROVAL_STATUS( 'approved' );
#53 = SECURITY_CLASSIFICATION_LEVEL( 'unclassified' );
#54 = MECHANICAL_CONTEXT( '', #27, 'mechanical' );
#55 = MANIFOLD_SOLID_BREP( '1', #70 );
#56 = AXIS2_PLACEMENT_3D( '', #71, #72, #73 );
#59 = LENGTH_MEASURE_WITH_UNIT( LENGTH_MEASURE( 1.00000000000000 ), #74 );
#62 = DIMENSIONAL_EXPONENTS( 1.00000000000000, 0.000000000000000, 0.000000000000000, 0.000000000000000, 0.000000000000000, 0.000000000000000, 0.000000000000000 );
#64 = DIMENSIONAL_EXPONENTS( 0.000000000000000, 0.000000000000000, 0.000000000000000, 0.000000000000000, 0.000000000000000, 0.000000000000000, 0.000000000000000 );
#70 = CLOSED_SHELL( '', ( #75, #76, #77, #78, #79, #80, #81, #82, #83, #84, #85, #86, #87, #88, #89 ) );
#71 = CARTESIAN_POINT( '', ( 0.000000000000000, 0.000000000000000, 0.000000000000000 ) );
#72 = DIRECTION( '', ( 0.000000000000000, 0.000000000000000, 1.00000000000000 ) );
#73 = DIRECTION( '', ( 1.00000000000000, 0.000000000000000, 0.000000000000000 ) );
#74 =  ( NAMED_UNIT( #62 )LENGTH_UNIT(  )SI_UNIT( .MILLI., .METRE. ) );
#75 = ADVANCED_FACE( '', ( #91 ), #92, .T. );
#76 = ADVANCED_FACE( '', ( #93 ), #94, .T. );
#77 = ADVANCED_FACE( '', ( #95 ), #96, .T. );
#78 = ADVANCED_FACE( '', ( #97 ), #98, .F. );
#79 = ADVANCED_FACE( '', ( #99 ), #100, .F. );
#80 = ADVANCED_FACE( '', ( #101 ), #102, .F. );
#81 = ADVANCED_FACE( '', ( #103 ), #104, .F. );
#82 = ADVANCED_FACE( '', ( #105 ), #106, .F. );
#83 = ADVANCED_FACE( '', ( #107 ), #108, .F. );
#84 = ADVANCED_FACE( '', ( #109 ), #110, .T. );
#85 = ADVANCED_FACE( '', ( #111 ), #112, .T. );
#86 = ADVANCED_FACE( '', ( #113 ), #114, .T. );
#87 = ADVANCED_FACE( '', ( #115, #116 ), #117, .T. );
#88 = ADVANCED_FACE( '', ( #118 ), #119, .T. );
#89 = ADVANCED_FACE( '', ( #120, #121 ), #122, .T. );
#91 = FACE_OUTER_BOUND( '', #123, .T. );
#92 = CYLINDRICAL_SURFACE( '', #124, 10.3500000000000 );
#93 = FACE_OUTER_BOUND( '', #125, .T. );
#94 = CYLINDRICAL_SURFACE( '', #126, 11.5000000000000 );
#95 = FACE_OUTER_BOUND( '', #127, .T. );
#96 = CONICAL_SURFACE( '', #128, 10.9750000000000, 0.785398163397448 );
#97 = FACE_OUTER_BOUND( '', #129, .T. );
#98 = CONICAL_SURFACE( '', #130, 4.59400000000000, 0.785398163397448 );
#99 = FACE_OUTER_BOUND( '', #131, .T. );
#100 = CYLINDRICAL_SURFACE( '', #132, 4.18800000000000 );
#101 = FACE_OUTER_BOUND( '', #133, .T. );
#102 = CONICAL_SURFACE( '', #134, 2.09400000000000, 1.04719755119660 );
#103 = FACE_OUTER_BOUND( '', #135, .T. );
#104 = CONICAL_SURFACE( '', #136, 2.09400000000000, 1.04719755119660 );
#105 = FACE_OUTER_BOUND( '', #137, .T. );
#106 = CYLINDRICAL_SURFACE( '', #138, 4.18800000000000 );
#107 = FACE_OUTER_BOUND( '', #139, .T. );
#108 = CONICAL_SURFACE( '', #140, 4.59400000000000, 0.785398163397448 );
#109 = FACE_OUTER_BOUND( '', #141, .T. );
#110 = PLANE( '', #142 );
#111 = FACE_OUTER_BOUND( '', #143, .T. );
#112 = CONICAL_SURFACE( '', #144, 10.9750000000000, 0.785398163397448 );
#113 = FACE_OUTER_BOUND( '', #145, .T. );
#114 = CYLINDRICAL_SURFACE( '', #146, 11.5000000000000 );
#115 = FACE_BOUND( '', #147, .T. );
#116 = FACE_OUTER_BOUND( '', #148, .T. );
#117 = PLANE( '', #149 );
#118 = FACE_OUTER_BOUND( '', #150, .T. );
#119 = CYLINDRICAL_SURFACE( '', #151, 10.3500000000000 );
#120 = FACE_BOUND( '', #152, .T. );
#121 = FACE_OUTER_BOUND( '', #153, .T. );
#122 = PLANE( '', #154 );
#123 = EDGE_LOOP( '', ( #155, #156, #157, #158 ) );
#124 = AXIS2_PLACEMENT_3D( '', #159, #160, #161 );
#125 = EDGE_LOOP( '', ( #162, #163, #164, #165 ) );
#126 = AXIS2_PLACEMENT_3D( '', #166, #167, #168 );
#127 = EDGE_LOOP( '', ( #169, #170, #171, #172 ) );
#128 = AXIS2_PLACEMENT_3D( '', #173, #174, #175 );
#129 = EDGE_LOOP( '', ( #176, #177, #178, #179 ) );
#130 = AXIS2_PLACEMENT_3D( '', #180, #181, #182 );
#131 = EDGE_LOOP( '', ( #183, #184, #185, #186 ) );
#132 = AXIS2_PLACEMENT_3D( '', #187, #188, #189 );
#133 = EDGE_LOOP( '', ( #190, #191, #192 ) );
#134 = AXIS2_PLACEMENT_3D( '', #193, #194, #195 );
#135 = EDGE_LOOP( '', ( #196, #197, #198 ) );
#136 = AXIS2_PLACEMENT_3D( '', #199, #200, #201 );
#137 = EDGE_LOOP( '', ( #202, #203, #204, #205 ) );
#138 = AXIS2_PLACEMENT_3D( '', #206, #207, #208 );
#139 = EDGE_LOOP( '', ( #209, #210, #211, #212 ) );
#140 = AXIS2_PLACEMENT_3D( '', #213, #214, #215 );
#141 = EDGE_LOOP( '', ( #216, #217 ) );
#142 = AXIS2_PLACEMENT_3D( '', #218, #219, #220 );
#143 = EDGE_LOOP( '', ( #221, #222, #223, #224 ) );
#144 = AXIS2_PLACEMENT_3D( '', #225, #226, #227 );
#145 = EDGE_LOOP( '', ( #228, #229, #230, #231 ) );
#146 = AXIS2_PLACEMENT_3D( '', #232, #233, #234 );
#147 = EDGE_LOOP( '', ( #235, #236 ) );
#148 = EDGE_LOOP( '', ( #237, #238 ) );
#149 = AXIS2_PLACEMENT_3D( '', #239, #240, #241 );
#150 = EDGE_LOOP( '', ( #242, #243, #244, #245 ) );
#151 = AXIS2_PLACEMENT_3D( '', #246, #247, #248 );
#152 = EDGE_LOOP( '', ( #249, #250 ) );
#153 = EDGE_LOOP( '', ( #251, #252 ) );
#154 = AXIS2_PLACEMENT_3D( '', #253, #254, #255 );
#155 = ORIENTED_EDGE( '', *, *, #256, .F. );
#156 = ORIENTED_EDGE( '', *, *, #257, .T. );
#157 = ORIENTED_EDGE( '', *, *, #258, .F. );
#158 = ORIENTED_EDGE( '', *, *, #259, .F. );
#159 = CARTESIAN_POINT( '', ( 0.000000000000000, 20.4750000000000, 0.000000000000000 ) );
#160 = DIRECTION( '', ( -0.000000000000000, -1.00000000000000, -0.000000000000000 ) );
#161 = DIRECTION( '', ( 1.00000000000000, 0.000000000000000, -2.44921270764475E-016 ) );
#162 = ORIENTED_EDGE( '', *, *, #260, .F. );
#163 = ORIENTED_EDGE( '', *, *, #261, .T. );
#164 = ORIENTED_EDGE( '', *, *, #262, .F. );
#165 = ORIENTED_EDGE( '', *, *, #263, .F. );
#166 = CARTESIAN_POINT( '', ( 0.000000000000000, 10.5000000000000, 0.000000000000000 ) );
#167 = DIRECTION( '', ( -0.000000000000000, -1.00000000000000, -0.000000000000000 ) );
#168 = DIRECTION( '', ( 1.00000000000000, 0.000000000000000, -2.44921270764475E-016 ) );
#169 = ORIENTED_EDGE( '', *, *, #264, .F. );
#170 = ORIENTED_EDGE( '', *, *, #265, .T. );
#171 = ORIENTED_EDGE( '', *, *, #266, .F. );
#172 = ORIENTED_EDGE( '', *, *, #261, .F. );
#173 = CARTESIAN_POINT( '', ( 0.000000000000000, 0.524999999999999, 0.000000000000000 ) );
#174 = DIRECTION( '', ( -0.000000000000000, 1.00000000000000, 0.000000000000000 ) );
#175 = DIRECTION( '', ( 1.00000000000000, 0.000000000000000, -2.44921270764475E-016 ) );
#176 = ORIENTED_EDGE( '', *, *, #267, .F. );
#177 = ORIENTED_EDGE( '', *, *, #268, .F. );
#178 = ORIENTED_EDGE( '', *, *, #269, .F. );
#179 = ORIENTED_EDGE( '', *, *, #270, .F. );
#180 = CARTESIAN_POINT( '', ( 0.000000000000000, 20.5940000000000, 0.000000000000000 ) );
#181 = DIRECTION( '', ( -0.000000000000000, 1.00000000000000, 0.000000000000000 ) );
#182 = DIRECTION( '', ( 1.00000000000000, 0.000000000000000, -2.44921270764475E-016 ) );
#183 = ORIENTED_EDGE( '', *, *, #271, .F. );
#184 = ORIENTED_EDGE( '', *, *, #270, .T. );
#185 = ORIENTED_EDGE( '', *, *, #272, .F. );
#186 = ORIENTED_EDGE( '', *, *, #273, .F. );
#187 = CARTESIAN_POINT( '', ( 0.000000000000000, 13.2440000000000, 0.000000000000000 ) );
#188 = DIRECTION( '', ( -0.000000000000000, -1.00000000000000, -0.000000000000000 ) );
#189 = DIRECTION( '', ( 1.00000000000000, 0.000000000000000, -2.44921270764475E-016 ) );
#190 = ORIENTED_EDGE( '', *, *, #274, .F. );
#191 = ORIENTED_EDGE( '', *, *, #275, .F. );
#192 = ORIENTED_EDGE( '', *, *, #273, .T. );
#193 = CARTESIAN_POINT( '', ( 0.000000000000000, 5.09102853631692, 0.000000000000000 ) );
#194 = DIRECTION( '', ( -0.000000000000000, 1.00000000000000, 0.000000000000000 ) );
#195 = DIRECTION( '', ( 1.00000000000000, 0.000000000000000, -2.44921270764475E-016 ) );
#196 = ORIENTED_EDGE( '', *, *, #274, .T. );
#197 = ORIENTED_EDGE( '', *, *, #276, .T. );
#198 = ORIENTED_EDGE( '', *, *, #275, .T. );
#199 = CARTESIAN_POINT( '', ( 0.000000000000000, 5.09102853631692, 0.000000000000000 ) );
#200 = DIRECTION( '', ( -0.000000000000000, 1.00000000000000, 0.000000000000000 ) );
#201 = DIRECTION( '', ( 1.00000000000000, 0.000000000000000, -2.44921270764475E-016 ) );
#202 = ORIENTED_EDGE( '', *, *, #271, .T. );
#203 = ORIENTED_EDGE( '', *, *, #276, .F. );
#204 = ORIENTED_EDGE( '', *, *, #272, .T. );
#205 = ORIENTED_EDGE( '', *, *, #277, .T. );
#206 = CARTESIAN_POINT( '', ( 0.000000000000000, 13.2440000000000, 0.000000000000000 ) );
#207 = DIRECTION( '', ( -0.000000000000000, -1.00000000000000, -0.000000000000000 ) );
#208 = DIRECTION( '', ( 1.00000000000000, 0.000000000000000, -2.44921270764475E-016 ) );
#209 = ORIENTED_EDGE( '', *, *, #267, .T. );
#210 = ORIENTED_EDGE( '', *, *, #277, .F. );
#211 = ORIENTED_EDGE( '', *, *, #269, .T. );
#212 = ORIENTED_EDGE( '', *, *, #278, .F. );
#213 = CARTESIAN_POINT( '', ( 0.000000000000000, 20.5940000000000, 0.000000000000000 ) );
#214 = DIRECTION( '', ( -0.000000000000000, 1.00000000000000, 0.000000000000000 ) );
#215 = DIRECTION( '', ( 1.00000000000000, 0.000000000000000, -2.44921270764475E-016 ) );
#216 = ORIENTED_EDGE( '', *, *, #265, .F. );
#217 = ORIENTED_EDGE( '', *, *, #279, .F. );
#218 = CARTESIAN_POINT( '', ( 5.22500000000000, 0.000000000000000, -1.27971363974438E-015 ) );
#219 = DIRECTION( '', ( -0.000000000000000, -1.00000000000000, 0.000000000000000 ) );
#220 = DIRECTION( '', ( -1.00000000000000, 0.000000000000000, 2.44921270764475E-016 ) );
#221 = ORIENTED_EDGE( '', *, *, #264, .T. );
#222 = ORIENTED_EDGE( '', *, *, #280, .F. );
#223 = ORIENTED_EDGE( '', *, *, #266, .T. );
#224 = ORIENTED_EDGE( '', *, *, #279, .T. );
#225 = CARTESIAN_POINT( '', ( 0.000000000000000, 0.524999999999999, 0.000000000000000 ) );
#226 = DIRECTION( '', ( -0.000000000000000, 1.00000000000000, 0.000000000000000 ) );
#227 = DIRECTION( '', ( 1.00000000000000, 0.000000000000000, -2.44921270764475E-016 ) );
#228 = ORIENTED_EDGE( '', *, *, #260, .T. );
#229 = ORIENTED_EDGE( '', *, *, #281, .F. );
#230 = ORIENTED_EDGE( '', *, *, #262, .T. );
#231 = ORIENTED_EDGE( '', *, *, #280, .T. );
#232 = CARTESIAN_POINT( '', ( 0.000000000000000, 10.5000000000000, 0.000000000000000 ) );
#233 = DIRECTION( '', ( -0.000000000000000, -1.00000000000000, -0.000000000000000 ) );
#234 = DIRECTION( '', ( 1.00000000000000, 0.000000000000000, -2.44921270764475E-016 ) );
#235 = ORIENTED_EDGE( '', *, *, #257, .F. );
#236 = ORIENTED_EDGE( '', *, *, #282, .F. );
#237 = ORIENTED_EDGE( '', *, *, #263, .T. );
#238 = ORIENTED_EDGE( '', *, *, #281, .T. );
#239 = CARTESIAN_POINT( '', ( 10.9250000000000, 19.9500000000000, -2.67576488310189E-015 ) );
#240 = DIRECTION( '', ( -3.08931624243522E-015, 1.00000000000000, 7.56639259890568E-031 ) );
#241 = DIRECTION( '', ( 1.00000000000000, 3.08931624243522E-015, -2.44921270764475E-016 ) );
#242 = ORIENTED_EDGE( '', *, *, #256, .T. );
#243 = ORIENTED_EDGE( '', *, *, #283, .F. );
#244 = ORIENTED_EDGE( '', *, *, #258, .T. );
#245 = ORIENTED_EDGE( '', *, *, #282, .T. );
#246 = CARTESIAN_POINT( '', ( 0.000000000000000, 20.4750000000000, 0.000000000000000 ) );
#247 = DIRECTION( '', ( -0.000000000000000, -1.00000000000000, -0.000000000000000 ) );
#248 = DIRECTION( '', ( 1.00000000000000, 0.000000000000000, -2.44921270764475E-016 ) );
#249 = ORIENTED_EDGE( '', *, *, #278, .T. );
#250 = ORIENTED_EDGE( '', *, *, #268, .T. );
#251 = ORIENTED_EDGE( '', *, *, #259, .T. );
#252 = ORIENTED_EDGE( '', *, *, #283, .T. );
#253 = CARTESIAN_POINT( '', ( 5.17500000000000, 21.0000000000000, -1.26746757620616E-015 ) );
#254 = DIRECTION( '', ( 0.000000000000000, 1.00000000000000, 0.000000000000000 ) );
#255 = DIRECTION( '', ( 1.00000000000000, 0.000000000000000, -2.44921270764475E-016 ) );
#256 = EDGE_CURVE( '', #284, #285, #286, .T. );
#257 = EDGE_CURVE( '', #284, #287, #288, .T. );
#258 = EDGE_CURVE( '', #289, #287, #290, .T. );
#259 = EDGE_CURVE( '', #285, #289, #291, .T. );
#260 = EDGE_CURVE( '', #292, #293, #294, .T. );
#261 = EDGE_CURVE( '', #292, #295, #296, .T. );
#262 = EDGE_CURVE( '', #297, #295, #298, .T. );
#263 = EDGE_CURVE( '', #293, #297, #299, .T. );
#264 = EDGE_CURVE( '', #300, #292, #301, .T. );
#265 = EDGE_CURVE( '', #300, #302, #303, .T. );
#266 = EDGE_CURVE( '', #295, #302, #304, .T. );
#267 = EDGE_CURVE( '', #305, #306, #307, .T. );
#268 = EDGE_CURVE( '', #308, #305, #309, .T. );
#269 = EDGE_CURVE( '', #310, #308, #311, .T. );
#270 = EDGE_CURVE( '', #306, #310, #312, .T. );
#271 = EDGE_CURVE( '', #306, #313, #314, .T. );
#272 = EDGE_CURVE( '', #315, #310, #316, .T. );
#273 = EDGE_CURVE( '', #313, #315, #317, .T. );
#274 = EDGE_CURVE( '', #318, #315, #319, .T. );
#275 = EDGE_CURVE( '', #313, #318, #320, .T. );
#276 = EDGE_CURVE( '', #315, #313, #321, .T. );
#277 = EDGE_CURVE( '', #310, #306, #322, .T. );
#278 = EDGE_CURVE( '', #305, #308, #323, .T. );
#279 = EDGE_CURVE( '', #302, #300, #324, .T. );
#280 = EDGE_CURVE( '', #295, #292, #325, .T. );
#281 = EDGE_CURVE( '', #297, #293, #326, .T. );
#282 = EDGE_CURVE( '', #287, #284, #327, .T. );
#283 = EDGE_CURVE( '', #289, #285, #328, .T. );
#284 = VERTEX_POINT( '', #329 );
#285 = VERTEX_POINT( '', #330 );
#286 = LINE( '', #331, #332 );
#287 = VERTEX_POINT( '', #333 );
#288 = CIRCLE( '', #334, 10.3500000000000 );
#289 = VERTEX_POINT( '', #335 );
#290 = LINE( '', #336, #337 );
#291 = CIRCLE( '', #338, 10.3500000000000 );
#292 = VERTEX_POINT( '', #339 );
#293 = VERTEX_POINT( '', #340 );
#294 = LINE( '', #341, #342 );
#295 = VERTEX_POINT( '', #343 );
#296 = CIRCLE( '', #344, 11.5000000000000 );
#297 = VERTEX_POINT( '', #345 );
#298 = LINE( '', #346, #347 );
#299 = CIRCLE( '', #348, 11.5000000000000 );
#300 = VERTEX_POINT( '', #349 );
#301 = LINE( '', #350, #351 );
#302 = VERTEX_POINT( '', #352 );
#303 = CIRCLE( '', #353, 10.4500000000000 );
#304 = LINE( '', #354, #355 );
#305 = VERTEX_POINT( '', #356 );
#306 = VERTEX_POINT( '', #357 );
#307 = LINE( '', #358, #359 );
#308 = VERTEX_POINT( '', #360 );
#309 = CIRCLE( '', #361, 5.00000000000000 );
#310 = VERTEX_POINT( '', #362 );
#311 = LINE( '', #363, #364 );
#312 = CIRCLE( '', #365, 4.18800000000000 );
#313 = VERTEX_POINT( '', #366 );
#314 = LINE( '', #367, #368 );
#315 = VERTEX_POINT( '', #369 );
#316 = LINE( '', #370, #371 );
#317 = CIRCLE( '', #372, 4.18800000000000 );
#318 = VERTEX_POINT( '', #373 );
#319 = LINE( '', #374, #375 );
#320 = LINE( '', #376, #377 );
#321 = CIRCLE( '', #378, 4.18800000000000 );
#322 = CIRCLE( '', #379, 4.18800000000000 );
#323 = CIRCLE( '', #380, 5.00000000000000 );
#324 = CIRCLE( '', #381, 10.4500000000000 );
#325 = CIRCLE( '', #382, 11.5000000000000 );
#326 = CIRCLE( '', #383, 11.5000000000000 );
#327 = CIRCLE( '', #384, 10.3500000000000 );
#328 = CIRCLE( '', #385, 10.3500000000000 );
#329 = CARTESIAN_POINT( '', ( 10.3500000000000, 19.9500000000000, -2.53493515241232E-015 ) );
#330 = CARTESIAN_POINT( '', ( 10.3500000000000, 21.0000000000000, -2.53493515241232E-015 ) );
#331 = CARTESIAN_POINT( '', ( 10.3500000000000, 20.4750000000000, -1.26746757620616E-015 ) );
#332 = VECTOR( '', #386, 1.00000000000000 );
#333 = CARTESIAN_POINT( '', ( -10.3500000000000, 19.9500000000000, 1.26746757620616E-015 ) );
#334 = AXIS2_PLACEMENT_3D( '', #387, #388, #389 );
#335 = CARTESIAN_POINT( '', ( -10.3500000000000, 21.0000000000000, 1.26746757620616E-015 ) );
#336 = CARTESIAN_POINT( '', ( -10.3500000000000, 20.4750000000000, 1.26746757620616E-015 ) );
#337 = VECTOR( '', #390, 1.00000000000000 );
#338 = AXIS2_PLACEMENT_3D( '', #391, #392, #393 );
#339 = CARTESIAN_POINT( '', ( 11.5000000000000, 1.05000000000000, -2.81659461379147E-015 ) );
#340 = CARTESIAN_POINT( '', ( 11.5000000000000, 19.9500000000000, -2.81659461379147E-015 ) );
#341 = CARTESIAN_POINT( '', ( 11.5000000000000, 10.5000000000000, -1.40829730689573E-015 ) );
#342 = VECTOR( '', #394, 1.00000000000000 );
#343 = CARTESIAN_POINT( '', ( -11.5000000000000, 1.05000000000000, 1.40829730689573E-015 ) );
#344 = AXIS2_PLACEMENT_3D( '', #395, #396, #397 );
#345 = CARTESIAN_POINT( '', ( -11.5000000000000, 19.9500000000000, 1.40829730689573E-015 ) );
#346 = CARTESIAN_POINT( '', ( -11.5000000000000, 10.5000000000000, 1.40829730689573E-015 ) );
#347 = VECTOR( '', #398, 1.00000000000000 );
#348 = AXIS2_PLACEMENT_3D( '', #399, #400, #401 );
#349 = CARTESIAN_POINT( '', ( 10.4500000000000, 0.000000000000000, -2.55942727948877E-015 ) );
#350 = CARTESIAN_POINT( '', ( 10.9750000000000, 0.524999999999999, -1.34400547332006E-015 ) );
#351 = VECTOR( '', #402, 1.00000000000000 );
#352 = CARTESIAN_POINT( '', ( -10.4500000000000, 0.000000000000000, 1.27971363974438E-015 ) );
#353 = AXIS2_PLACEMENT_3D( '', #403, #404, #405 );
#354 = CARTESIAN_POINT( '', ( -10.9750000000000, 0.524999999999999, 1.34400547332006E-015 ) );
#355 = VECTOR( '', #406, 1.00000000000000 );
#356 = CARTESIAN_POINT( '', ( 5.00000000000000, 21.0000000000000, -1.22460635382238E-015 ) );
#357 = CARTESIAN_POINT( '', ( 4.18800000000000, 20.1880000000000, -1.02573028196162E-015 ) );
#358 = CARTESIAN_POINT( '', ( 4.59400000000000, 20.5940000000000, -5.62584158946000E-016 ) );
#359 = VECTOR( '', #407, 1.00000000000000 );
#360 = CARTESIAN_POINT( '', ( -5.00000000000000, 21.0000000000000, 6.12303176911188E-016 ) );
#361 = AXIS2_PLACEMENT_3D( '', #408, #409, #410 );
#362 = CARTESIAN_POINT( '', ( -4.18800000000000, 20.1880000000000, 5.12865140980812E-016 ) );
#363 = CARTESIAN_POINT( '', ( -4.59400000000000, 20.5940000000000, 5.62584158946000E-016 ) );
#364 = VECTOR( '', #411, 1.00000000000000 );
#365 = AXIS2_PLACEMENT_3D( '', #412, #413, #414 );
#366 = CARTESIAN_POINT( '', ( 4.18800000000000, 6.30000000000000, -1.02573028196162E-015 ) );
#367 = CARTESIAN_POINT( '', ( 4.18800000000000, 13.2440000000000, -5.12865140980812E-016 ) );
#368 = VECTOR( '', #415, 1.00000000000000 );
#369 = CARTESIAN_POINT( '', ( -4.18800000000000, 6.30000000000000, 5.12865140980811E-016 ) );
#370 = CARTESIAN_POINT( '', ( -4.18800000000000, 13.2440000000000, 5.12865140980812E-016 ) );
#371 = VECTOR( '', #416, 1.00000000000000 );
#372 = AXIS2_PLACEMENT_3D( '', #417, #418, #419 );
#373 = CARTESIAN_POINT( '', ( 0.000000000000000, 3.88205707263385, 0.000000000000000 ) );
#374 = CARTESIAN_POINT( '', ( -2.09400000000000, 5.09102853631692, 2.56432570490406E-016 ) );
#375 = VECTOR( '', #420, 1.00000000000000 );
#376 = CARTESIAN_POINT( '', ( 2.09400000000000, 5.09102853631692, -2.56432570490406E-016 ) );
#377 = VECTOR( '', #421, 1.00000000000000 );
#378 = AXIS2_PLACEMENT_3D( '', #422, #423, #424 );
#379 = AXIS2_PLACEMENT_3D( '', #425, #426, #427 );
#380 = AXIS2_PLACEMENT_3D( '', #428, #429, #430 );
#381 = AXIS2_PLACEMENT_3D( '', #431, #432, #433 );
#382 = AXIS2_PLACEMENT_3D( '', #434, #435, #436 );
#383 = AXIS2_PLACEMENT_3D( '', #437, #438, #439 );
#384 = AXIS2_PLACEMENT_3D( '', #440, #441, #442 );
#385 = AXIS2_PLACEMENT_3D( '', #443, #444, #445 );
#386 = DIRECTION( '', ( 0.000000000000000, 1.00000000000000, 0.000000000000000 ) );
#387 = CARTESIAN_POINT( '', ( 0.000000000000000, 19.9500000000000, 0.000000000000000 ) );
#388 = DIRECTION( '', ( 0.000000000000000, 1.00000000000000, 0.000000000000000 ) );
#389 = DIRECTION( '', ( 1.00000000000000, 0.000000000000000, -2.44921270764475E-016 ) );
#390 = DIRECTION( '', ( -0.000000000000000, -1.00000000000000, -0.000000000000000 ) );
#391 = CARTESIAN_POINT( '', ( 0.000000000000000, 21.0000000000000, 0.000000000000000 ) );
#392 = DIRECTION( '', ( 0.000000000000000, 1.00000000000000, 0.000000000000000 ) );
#393 = DIRECTION( '', ( 1.00000000000000, 0.000000000000000, -2.44921270764475E-016 ) );
#394 = DIRECTION( '', ( 0.000000000000000, 1.00000000000000, 0.000000000000000 ) );
#395 = CARTESIAN_POINT( '', ( 0.000000000000000, 1.05000000000000, 0.000000000000000 ) );
#396 = DIRECTION( '', ( 0.000000000000000, 1.00000000000000, 0.000000000000000 ) );
#397 = DIRECTION( '', ( 1.00000000000000, 0.000000000000000, -2.44921270764475E-016 ) );
#398 = DIRECTION( '', ( -0.000000000000000, -1.00000000000000, -0.000000000000000 ) );
#399 = CARTESIAN_POINT( '', ( 0.000000000000000, 19.9500000000000, 0.000000000000000 ) );
#400 = DIRECTION( '', ( 0.000000000000000, 1.00000000000000, 0.000000000000000 ) );
#401 = DIRECTION( '', ( 1.00000000000000, 0.000000000000000, -2.44921270764475E-016 ) );
#402 = DIRECTION( '', ( 0.707106781186548, 0.707106781186548, -8.65927457071936E-017 ) );
#403 = CARTESIAN_POINT( '', ( 0.000000000000000, 0.000000000000000, 0.000000000000000 ) );
#404 = DIRECTION( '', ( 0.000000000000000, 1.00000000000000, 0.000000000000000 ) );
#405 = DIRECTION( '', ( 1.00000000000000, 0.000000000000000, -2.44921270764475E-016 ) );
#406 = DIRECTION( '', ( 0.707106781186548, -0.707106781186548, -8.65927457071936E-017 ) );
#407 = DIRECTION( '', ( -0.707106781186547, -0.707106781186548, 8.65927457071935E-017 ) );
#408 = CARTESIAN_POINT( '', ( 0.000000000000000, 21.0000000000000, 0.000000000000000 ) );
#409 = DIRECTION( '', ( 0.000000000000000, -1.00000000000000, -0.000000000000000 ) );
#410 = DIRECTION( '', ( 1.00000000000000, 0.000000000000000, -2.44921270764475E-016 ) );
#411 = DIRECTION( '', ( -0.707106781186547, 0.707106781186548, 8.65927457071935E-017 ) );
#412 = CARTESIAN_POINT( '', ( 0.000000000000000, 20.1880000000000, 0.000000000000000 ) );
#413 = DIRECTION( '', ( 0.000000000000000, 1.00000000000000, 0.000000000000000 ) );
#414 = DIRECTION( '', ( 1.00000000000000, 0.000000000000000, -2.44921270764475E-016 ) );
#415 = DIRECTION( '', ( -0.000000000000000, -1.00000000000000, 0.000000000000000 ) );
#416 = DIRECTION( '', ( -0.000000000000000, 1.00000000000000, 0.000000000000000 ) );
#417 = CARTESIAN_POINT( '', ( 0.000000000000000, 6.30000000000000, 0.000000000000000 ) );
#418 = DIRECTION( '', ( 0.000000000000000, 1.00000000000000, 0.000000000000000 ) );
#419 = DIRECTION( '', ( 1.00000000000000, 0.000000000000000, -2.44921270764475E-016 ) );
#420 = DIRECTION( '', ( -0.866025403784439, 0.500000000000000, 1.06054021204601E-016 ) );
#421 = DIRECTION( '', ( -0.866025403784439, -0.500000000000000, 1.06054021204601E-016 ) );
#422 = CARTESIAN_POINT( '', ( 0.000000000000000, 6.30000000000000, 0.000000000000000 ) );
#423 = DIRECTION( '', ( 0.000000000000000, 1.00000000000000, 0.000000000000000 ) );
#424 = DIRECTION( '', ( 1.00000000000000, 0.000000000000000, -2.44921270764475E-016 ) );
#425 = CARTESIAN_POINT( '', ( 0.000000000000000, 20.1880000000000, 0.000000000000000 ) );
#426 = DIRECTION( '', ( 0.000000000000000, 1.00000000000000, 0.000000000000000 ) );
#427 = DIRECTION( '', ( 1.00000000000000, 0.000000000000000, -2.44921270764475E-016 ) );
#428 = CARTESIAN_POINT( '', ( 0.000000000000000, 21.0000000000000, 0.000000000000000 ) );
#429 = DIRECTION( '', ( 0.000000000000000, -1.00000000000000, -0.000000000000000 ) );
#430 = DIRECTION( '', ( 1.00000000000000, 0.000000000000000, -2.44921270764475E-016 ) );
#431 = CARTESIAN_POINT( '', ( 0.000000000000000, 0.000000000000000, 0.000000000000000 ) );
#432 = DIRECTION( '', ( 0.000000000000000, 1.00000000000000, 0.000000000000000 ) );
#433 = DIRECTION( '', ( 1.00000000000000, 0.000000000000000, -2.44921270764475E-016 ) );
#434 = CARTESIAN_POINT( '', ( 0.000000000000000, 1.05000000000000, 0.000000000000000 ) );
#435 = DIRECTION( '', ( 0.000000000000000, 1.00000000000000, 0.000000000000000 ) );
#436 = DIRECTION( '', ( 1.00000000000000, 0.000000000000000, -2.44921270764475E-016 ) );
#437 = CARTESIAN_POINT( '', ( 0.000000000000000, 19.9500000000000, 0.000000000000000 ) );
#438 = DIRECTION( '', ( 0.000000000000000, 1.00000000000000, 0.000000000000000 ) );
#439 = DIRECTION( '', ( 1.00000000000000, 0.000000000000000, -2.44921270764475E-016 ) );
#440 = CARTESIAN_POINT( '', ( 0.000000000000000, 19.9500000000000, 0.000000000000000 ) );
#441 = DIRECTION( '', ( 0.000000000000000, 1.00000000000000, 0.000000000000000 ) );
#442 = DIRECTION( '', ( 1.00000000000000, 0.000000000000000, -2.44921270764475E-016 ) );
#443 = CARTESIAN_POINT( '', ( 0.000000000000000, 21.0000000000000, 0.000000000000000 ) );
#444 = DIRECTION( '', ( 0.000000000000000, 1.00000000000000, 0.000000000000000 ) );
#445 = DIRECTION( '', ( 1.00000000000000, 0.000000000000000, -2.44921270764475E-016 ) );
ENDSEC;
END-ISO-10303-21;
