ISO-10303-21;
HEADER;
FILE_DESCRIPTION (( 'STEP AP203' ),
    '1' );
FILE_NAME ('WDS-402-222.step',
    '2012-04-05T12:54:26',
    ( 'SysAdmin' ),
    ( 'SolidWorks' ),
    'SwSTEP 2.0',
    'SolidWorks 2012',
    '' );
FILE_SCHEMA (( 'CONFIG_CONTROL_DESIGN' ));
ENDSEC;

DATA;
#1 = VECTOR ( 'NONE', #174, 1000.000000000000000 ) ;
#2 = FACE_OUTER_BOUND ( 'NONE', #332, .T. ) ;
#3 = VECTOR ( 'NONE', #222, 1000.000000000000000 ) ;
#4 = VECTOR ( 'NONE', #198, 1000.000000000000000 ) ;
#5 = AXIS2_PLACEMENT_3D ( 'NONE', #223, #229, #284 ) ;
#6 = AXIS2_PLACEMENT_3D ( 'NONE', #231, #221, #210 ) ;
#7 = VECTOR ( 'NONE', #291, 1000.000000000000000 ) ;
#8 = AXIS2_PLACEMENT_3D ( 'NONE', #399, #400, #401 ) ;
#9 = AXIS2_PLACEMENT_3D ( 'NONE', #337, #328, #325 ) ;
#10 = CALENDAR_DATE ( 2012, 5, 4 ) ;
#11 = AXIS2_PLACEMENT_3D ( 'NONE', #313, #315, #314 ) ;
#12 = APPROVAL_PERSON_ORGANIZATION ( #172, #102, #213 ) ;
#13 = AXIS2_PLACEMENT_3D ( 'NONE', #138, #156, #238 ) ;
#14 = COORDINATED_UNIVERSAL_TIME_OFFSET ( 5, 0, .BEHIND. ) ;
#15 = CALENDAR_DATE ( 2012, 5, 4 ) ;
#16 = FACE_OUTER_BOUND ( 'NONE', #331, .T. ) ;
#17 = CC_DESIGN_APPROVAL ( #94, ( #93 ) ) ;
#18 = AXIS2_PLACEMENT_3D ( 'NONE', #177, #168, #155 ) ;
#19 = PRODUCT_DEFINITION_FORMATION_WITH_SPECIFIED_SOURCE ( 'ANY', '', #297, .NOT_KNOWN. ) ;
#20 = FACE_OUTER_BOUND ( 'NONE', #333, .T. ) ;
#21 = APPROVAL_PERSON_ORGANIZATION ( #256, #94, #232 ) ;
#22 = FACE_OUTER_BOUND ( 'NONE', #334, .T. ) ;
#23 = AXIS2_PLACEMENT_3D ( 'NONE', #215, #212, #185 ) ;
#24 = VECTOR ( 'NONE', #227, 1000.000000000000000 ) ;
#25 = AXIS2_PLACEMENT_3D ( 'NONE', #257, #263, #258 ) ;
#26 = AXIS2_PLACEMENT_3D ( 'NONE', #200, #252, #165 ) ;
#27 = AXIS2_PLACEMENT_3D ( 'NONE', #320, #316, #317 ) ;
#28 = AXIS2_PLACEMENT_3D ( 'NONE', #188, #283, #295 ) ;
#29 = VECTOR ( 'NONE', #247, 1000.000000000000100 ) ;
#30 = VECTOR ( 'NONE', #398, 1000.000000000000000 ) ;
#31 = VECTOR ( 'NONE', #286, 999.9999999999998900 ) ;
#32 = AXIS2_PLACEMENT_3D ( 'NONE', #170, #207, #266 ) ;
#33 = AXIS2_PLACEMENT_3D ( 'NONE', #296, #287, #267 ) ;
#34 = COORDINATED_UNIVERSAL_TIME_OFFSET ( 5, 0, .BEHIND. ) ;
#35 = VECTOR ( 'NONE', #280, 1000.000000000000000 ) ;
#36 = CLOSED_SHELL ( 'NONE', ( #78, #90, #117, #79, #86, #112, #110, #70, #74, #73, #89 ) ) ;
#37 = FACE_OUTER_BOUND ( 'NONE', #330, .T. ) ;
#38 = VECTOR ( 'NONE', #322, 1000.000000000000000 ) ;
#39 = COORDINATED_UNIVERSAL_TIME_OFFSET ( 5, 0, .BEHIND. ) ;
#40 = SECURITY_CLASSIFICATION ( '', '', #148 ) ;
#41 = AXIS2_PLACEMENT_3D ( 'NONE', #250, #249, #195 ) ;
#42 = CC_DESIGN_APPROVAL ( #76, ( #40 ) ) ;
#43 = FACE_OUTER_BOUND ( 'NONE', #336, .T. ) ;
#44 = APPROVAL_PERSON_ORGANIZATION ( #179, #76, #181 ) ;
#45 = CYLINDRICAL_SURFACE ( 'NONE', #18, 10.31875000000000100 ) ;
#46 = FACE_OUTER_BOUND ( 'NONE', #327, .T. ) ;
#47 = AXIS2_PLACEMENT_3D ( 'NONE', #273, #288, #290 ) ;
#48 = FACE_OUTER_BOUND ( 'NONE', #335, .T. ) ;
#49 = CALENDAR_DATE ( 2012, 5, 4 ) ;
#50 = CC_DESIGN_APPROVAL ( #102, ( #19 ) ) ;
#51 = FACE_OUTER_BOUND ( 'NONE', #329, .T. ) ;
#52 = VECTOR ( 'NONE', #319, 1000.000000000000000 ) ;
#53 = CALENDAR_DATE ( 2012, 5, 4 ) ;
#54 = CC_DESIGN_SECURITY_CLASSIFICATION ( #40, ( #19 ) ) ;
#55 = CYLINDRICAL_SURFACE ( 'NONE', #57, 37.50000000000000700 ) ;
#56 = ORGANIZATION ( 'UNSPECIFIED', 'UNSPECIFIED', '' ) ;
#57 = AXIS2_PLACEMENT_3D ( 'NONE', #237, #294, #220 ) ;
#58 = VECTOR ( 'NONE', #276, 1000.000000000000000 ) ;
#59 = AXIS2_PLACEMENT_3D ( 'NONE', #204, #158, #187 ) ;
#60 = CALENDAR_DATE ( 2012, 5, 4 ) ;
#61 = FACE_OUTER_BOUND ( 'NONE', #339, .T. ) ;
#62 = AXIS2_PLACEMENT_3D ( 'NONE', #209, #278, #230 ) ;
#63 = VECTOR ( 'NONE', #226, 999.9999999999998900 ) ;
#64 = VECTOR ( 'NONE', #270, 1000.000000000000000 ) ;
#65 = AXIS2_PLACEMENT_3D ( 'NONE', #194, #240, #242 ) ;
#66 = FACE_OUTER_BOUND ( 'NONE', #342, .T. ) ;
#67 = VECTOR ( 'NONE', #268, 1000.000000000000100 ) ;
#68 = COORDINATED_UNIVERSAL_TIME_OFFSET ( 5, 0, .BEHIND. ) ;
#69 = COORDINATED_UNIVERSAL_TIME_OFFSET ( 5, 0, .BEHIND. ) ;
#70 = ADVANCED_FACE ( 'NONE', ( #48 ), #111, .T. ) ;
#71 = EDGE_CURVE ( 'NONE', #353, #300, #326, .T. ) ;
#72 = EDGE_CURVE ( 'NONE', #312, #308, #318, .T. ) ;
#73 = ADVANCED_FACE ( 'NONE', ( #61 ), #323, .F. ) ;
#74 = ADVANCED_FACE ( 'NONE', ( #20 ), #100, .T. ) ;
#75 = LOCAL_TIME ( 8, 54, 26.00000000000000000, #69 ) ;
#76 = APPROVAL ( #180, 'UNSPECIFIED' ) ;
#77 = EDGE_CURVE ( 'NONE', #310, #312, #311, .T. ) ;
#78 = ADVANCED_FACE ( 'NONE', ( #51 ), #120, .T. ) ;
#79 = ADVANCED_FACE ( 'NONE', ( #16 ), #402, .T. ) ;
#80 = CIRCLE ( 'NONE', #32, 37.50000000000000700 ) ;
#81 = PRODUCT_RELATED_PRODUCT_CATEGORY ( 'detail', '', ( #297 ) ) ;
#82 = CC_DESIGN_PERSON_AND_ORGANIZATION_ASSIGNMENT ( #217, #214, ( #19 ) ) ;
#83 = CIRCLE ( 'NONE', #62, 37.00000000000000000 ) ;
#84 = EDGE_CURVE ( 'NONE', #392, #344, #410, .T. ) ;
#85 = EDGE_CURVE ( 'NONE', #302, #392, #191, .T. ) ;
#86 = ADVANCED_FACE ( 'NONE', ( #2 ), #45, .F. ) ;
#87 = EDGE_CURVE ( 'NONE', #391, #301, #405, .T. ) ;
#88 = EDGE_CURVE ( 'NONE', #356, #304, #121, .T. ) ;
#89 = ADVANCED_FACE ( 'NONE', ( #43 ), #246, .T. ) ;
#90 = ADVANCED_FACE ( 'NONE', ( #37 ), #55, .T. ) ;
#91 = EDGE_CURVE ( 'NONE', #303, #302, #408, .T. ) ;
#92 = EDGE_CURVE ( 'NONE', #312, #303, #251, .T. ) ;
#93 = PRODUCT_DEFINITION ( 'UNKNOWN', '', #19, #413 ) ;
#94 = APPROVAL ( #264, 'UNSPECIFIED' ) ;
#95 = LOCAL_TIME ( 8, 54, 26.00000000000000000, #68 ) ;
#96 = EDGE_CURVE ( 'NONE', #356, #308, #281, .T. ) ;
#97 = EDGE_CURVE ( 'NONE', #301, #386, #233, .T. ) ;
#98 = EDGE_CURVE ( 'NONE', #308, #299, #106, .T. ) ;
#99 = CC_DESIGN_PERSON_AND_ORGANIZATION_ASSIGNMENT ( #153, #171, ( #40 ) ) ;
#100 = CONICAL_SURFACE ( 'NONE', #11, 37.00000000000000700, 0.7853981633974552700 ) ;
#101 = EDGE_CURVE ( 'NONE', #299, #305, #206, .T. ) ;
#102 = APPROVAL ( #218, 'UNSPECIFIED' ) ;
#103 = EDGE_CURVE ( 'NONE', #391, #344, #107, .T. ) ;
#104 = EDGE_CURVE ( 'NONE', #306, #305, #236, .T. ) ;
#105 = EDGE_CURVE ( 'NONE', #304, #299, #211, .T. ) ;
#106 = CIRCLE ( 'NONE', #41, 10.31875000000000100 ) ;
#107 = CIRCLE ( 'NONE', #5, 37.00000000000000700 ) ;
#108 = EDGE_CURVE ( 'NONE', #310, #356, #203, .T. ) ;
#109 = CC_DESIGN_DATE_AND_TIME_ASSIGNMENT ( #173, #178, ( #40 ) ) ;
#110 = ADVANCED_FACE ( 'NONE', ( #22 ), #208, .F. ) ;
#111 = CONICAL_SURFACE ( 'NONE', #9, 37.50000000000000700, 0.7853981633974447300 ) ;
#112 = ADVANCED_FACE ( 'NONE', ( #66 ), #269, .F. ) ;
#113 = EDGE_CURVE ( 'NONE', #303, #353, #83, .T. ) ;
#114 = EDGE_CURVE ( 'NONE', #300, #302, #124, .T. ) ;
#115 = CC_DESIGN_PERSON_AND_ORGANIZATION_ASSIGNMENT ( #139, #144, ( #19 ) ) ;
#116 = CIRCLE ( 'NONE', #33, 37.00000000000000000 ) ;
#117 = ADVANCED_FACE ( 'NONE', ( #46 ), #293, .F. ) ;
#118 = LOCAL_TIME ( 8, 54, 26.00000000000000000, #14 ) ;
#119 = LOCAL_TIME ( 8, 54, 26.00000000000000000, #34 ) ;
#120 = CONICAL_SURFACE ( 'NONE', #8, 37.00000000000000700, 0.7853981633974552700 ) ;
#121 = CIRCLE ( 'NONE', #65, 10.31875000000000100 ) ;
#122 = EDGE_CURVE ( 'NONE', #353, #306, #116, .T. ) ;
#123 = LOCAL_TIME ( 8, 54, 26.00000000000000000, #39 ) ;
#124 = CIRCLE ( 'NONE', #47, 37.50000000000000700 ) ;
#125 = EDGE_CURVE ( 'NONE', #305, #307, #272, .T. ) ;
#126 = EDGE_CURVE ( 'NONE', #307, #391, #186, .T. ) ;
#127 = EDGE_CURVE ( 'NONE', #304, #307, #141, .T. ) ;
#128 = EDGE_CURVE ( 'NONE', #344, #310, #289, .T. ) ;
#129 = CC_DESIGN_DATE_AND_TIME_ASSIGNMENT ( #161, #160, ( #93 ) ) ;
#130 = EDGE_CURVE ( 'NONE', #386, #306, #409, .T. ) ;
#131 = EDGE_CURVE ( 'NONE', #386, #300, #80, .T. ) ;
#132 = EDGE_CURVE ( 'NONE', #392, #301, #135, .T. ) ;
#133 = CC_DESIGN_PERSON_AND_ORGANIZATION_ASSIGNMENT ( #162, #224, ( #93 ) ) ;
#134 = CC_DESIGN_PERSON_AND_ORGANIZATION_ASSIGNMENT ( #260, #259, ( #297 ) ) ;
#135 = CIRCLE ( 'NONE', #59, 37.50000000000000700 ) ;
#136 = APPLICATION_CONTEXT ( 'configuration controlled 3d designs of mechanical parts and assemblies' ) ;
#137 = APPLICATION_CONTEXT ( 'configuration controlled 3d designs of mechanical parts and assemblies' ) ;
#138 = CARTESIAN_POINT ( 'NONE',  ( 34.83933072987899500, -10.31874999999999600, -12.50000000000000000 ) ) ;
#139 = PERSON_AND_ORGANIZATION ( #407, #56 ) ;
#140 = CARTESIAN_POINT ( 'NONE',  ( 1.263682415870175500E-015, -10.31875000000000300, -12.50000000000000000 ) ) ;
#141 = LINE ( 'NONE', #199, #58 ) ;
#142 = CARTESIAN_POINT ( 'NONE',  ( 35.28747281405472300, -11.12628699959461900, 0.0000000000000000000 ) ) ;
#143 = CARTESIAN_POINT ( 'NONE',  ( 34.83933072987899500, -10.31874999999999800, 0.0000000000000000000 ) ) ;
#144 = PERSON_AND_ORGANIZATION_ROLE ( 'design_supplier' ) ;
#145 = CARTESIAN_POINT ( 'NONE',  ( 34.83933072987899500, -10.31874999999999600, -12.50000000000000000 ) ) ;
#146 = CARTESIAN_POINT ( 'NONE',  ( 34.83933072987897400, 10.31874999999999800, -12.50000000000000000 ) ) ;
#147 = CARTESIAN_POINT ( 'NONE',  ( 0.0000000000000000000, 10.31875000000000100, 0.0000000000000000000 ) ) ;
#148 = SECURITY_CLASSIFICATION_LEVEL ( 'unclassified' ) ;
#149 = CARTESIAN_POINT ( 'NONE',  ( 35.61981046389541200, 11.72514829399476000, -11.99999999999999600 ) ) ;
#150 = CARTESIAN_POINT ( 'NONE',  ( 35.61981046389540500, -11.72514829399476400, -0.4999999999999935100 ) ) ;
#151 = CARTESIAN_POINT ( 'NONE',  ( 35.39848010603577700, -11.32631841522114200, -0.1660209118145463700 ) ) ;
#152 = CARTESIAN_POINT ( 'NONE',  ( 35.28747281405473800, 11.12628699959462100, 0.0000000000000000000 ) ) ;
#153 = PERSON_AND_ORGANIZATION ( #407, #56 ) ;
#154 = CARTESIAN_POINT ( 'NONE',  ( -37.50000000000000700, 0.0000000000000000000, -0.4999999999999935100 ) ) ;
#155 = DIRECTION ( 'NONE',  ( 1.000000000000000000, 0.0000000000000000000, 0.0000000000000000000 ) ) ;
#156 = DIRECTION ( 'NONE',  ( 0.8743822282230003800, 0.4852377963099958600, -0.0000000000000000000 ) ) ;
#157 = CARTESIAN_POINT ( 'NONE',  ( 35.28747281405473800, -11.12628699959462800, -12.50000000000000000 ) ) ;
#158 = DIRECTION ( 'NONE',  ( -0.0000000000000000000, -0.0000000000000000000, 1.000000000000000000 ) ) ;
#159 = CARTESIAN_POINT ( 'NONE',  ( 35.39848010603577700, -11.32631841522114300, -12.33397908818544800 ) ) ;
#160 = DATE_TIME_ROLE ( 'creation_date' ) ;
#161 = DATE_AND_TIME ( #10, #95 ) ;
#162 = PERSON_AND_ORGANIZATION ( #407, #56 ) ;
#163 =( NAMED_UNIT ( * ) PLANE_ANGLE_UNIT ( ) SI_UNIT ( $, .RADIAN. ) );
#164 = CARTESIAN_POINT ( 'NONE',  ( 0.0000000000000000000, 10.31875000000000100, -12.50000000000000000 ) ) ;
#165 = DIRECTION ( 'NONE',  ( 1.000000000000000000, 1.850371707708594100E-016, 0.0000000000000000000 ) ) ;
#166 = CARTESIAN_POINT ( 'NONE',  ( 35.50925622480261300, -11.52593326447202100, -12.16729991482697800 ) ) ;
#167 = CARTESIAN_POINT ( 'NONE',  ( -37.00000000000000000, 0.0000000000000000000, 0.0000000000000000000 ) ) ;
#168 = DIRECTION ( 'NONE',  ( -0.0000000000000000000, -0.0000000000000000000, 1.000000000000000000 ) ) ;
#169 = CARTESIAN_POINT ( 'NONE',  ( 35.28747281405473800, 11.12628699959463500, -12.50000000000000000 ) ) ;
#170 = CARTESIAN_POINT ( 'NONE',  ( 0.0000000000000000000, 0.0000000000000000000, -0.4999999999999935100 ) ) ;
#171 = PERSON_AND_ORGANIZATION_ROLE ( 'classification_officer' ) ;
#172 = PERSON_AND_ORGANIZATION ( #407, #56 ) ;
#173 = DATE_AND_TIME ( #60, #123 ) ;
#174 = DIRECTION ( 'NONE',  ( -0.0000000000000000000, -0.0000000000000000000, -1.000000000000000000 ) ) ;
#175 = CARTESIAN_POINT ( 'NONE',  ( 35.61981046389539800, 11.72514829399476900, -12.50000000000000000 ) ) ;
#176 = CARTESIAN_POINT ( 'NONE',  ( 35.50925622480261300, 11.52593326447203000, -12.16729991482697800 ) ) ;
#177 = CARTESIAN_POINT ( 'NONE',  ( 0.0000000000000000000, 0.0000000000000000000, -12.50000000000000000 ) ) ;
#178 = DATE_TIME_ROLE ( 'classification_date' ) ;
#179 = PERSON_AND_ORGANIZATION ( #407, #56 ) ;
#180 = APPROVAL_STATUS ( 'not_yet_approved' ) ;
#181 = APPROVAL_ROLE ( '' ) ;
#182 = CARTESIAN_POINT ( 'NONE',  ( 34.83933072987897400, 10.31875000000000500, 0.0000000000000000000 ) ) ;
#183 = CARTESIAN_POINT ( 'NONE',  ( 35.39848010603577700, 11.32631841522115400, -12.33397908818544800 ) ) ;
#184 = CARTESIAN_POINT ( 'NONE',  ( 35.50925622480261300, -11.52593326447202000, -0.3327000851730128600 ) ) ;
#185 = DIRECTION ( 'NONE',  ( 1.000000000000000000, 0.0000000000000000000, -0.0000000000000000000 ) ) ;
#186 = LINE ( 'NONE', #282, #67 ) ;
#187 = DIRECTION ( 'NONE',  ( 1.000000000000000000, 0.0000000000000000000, 0.0000000000000000000 ) ) ;
#188 = CARTESIAN_POINT ( 'NONE',  ( 0.0000000000000000000, 0.0000000000000000000, -12.50000000000000000 ) ) ;
#189 = DATE_AND_TIME ( #53, #75 ) ;
#190 = APPROVAL_DATE_TIME ( #189, #76 ) ;
#191 = LINE ( 'NONE', #175, #1 ) ;
#192 = CARTESIAN_POINT ( 'NONE',  ( 35.61981046389539800, -11.72514829399476400, -11.99999999999999600 ) ) ;
#193 = CARTESIAN_POINT ( 'NONE',  ( 35.61981046389539800, -11.72514829399476400, -11.99999999999999600 ) ) ;
#194 = CARTESIAN_POINT ( 'NONE',  ( 0.0000000000000000000, 0.0000000000000000000, -12.50000000000000000 ) ) ;
#195 = DIRECTION ( 'NONE',  ( 1.000000000000000000, 0.0000000000000000000, 0.0000000000000000000 ) ) ;
#196 = CARTESIAN_POINT ( 'NONE',  ( 35.61981046389539800, 11.72514829399476900, -0.4999999999999935100 ) ) ;
#197 = CARTESIAN_POINT ( 'NONE',  ( 1.263681589512514300E-015, -10.31875000000000300, 0.0000000000000000000 ) ) ;
#198 = DIRECTION ( 'NONE',  ( 1.000000000000000000, 1.850371707708594100E-016, -0.0000000000000000000 ) ) ;
#199 = CARTESIAN_POINT ( 'NONE',  ( 37.50000000000000700, -10.31874999999999600, -12.50000000000000000 ) ) ;
#200 = CARTESIAN_POINT ( 'NONE',  ( 37.50000000000000700, -10.31874999999999600, -12.50000000000000000 ) ) ;
#201 = CARTESIAN_POINT ( 'NONE',  ( 34.83933072987899500, -10.31874999999999600, -11.99999999999999600 ) ) ;
#202 = CARTESIAN_POINT ( 'NONE',  ( 35.61981046389541200, 11.72514829399476000, -11.99999999999999600 ) ) ;
#203 = LINE ( 'NONE', #164, #24 ) ;
#204 = CARTESIAN_POINT ( 'NONE',  ( 0.0000000000000000000, 0.0000000000000000000, -11.99999999999999600 ) ) ;
#205 = CARTESIAN_POINT ( 'NONE',  ( 35.50925622480261300, 11.52593326447202500, -0.3327000851730126400 ) ) ;
#206 = LINE ( 'NONE', #254, #4 ) ;
#207 = DIRECTION ( 'NONE',  ( 0.0000000000000000000, 0.0000000000000000000, -1.000000000000000000 ) ) ;
#208 = PLANE ( 'NONE',  #26 ) ;
#209 = CARTESIAN_POINT ( 'NONE',  ( 0.0000000000000000000, 0.0000000000000000000, 0.0000000000000000000 ) ) ;
#210 = DIRECTION ( 'NONE',  ( 0.0000000000000000000, -0.0000000000000000000, 1.000000000000000000 ) ) ;
#211 = LINE ( 'NONE', #279, #35 ) ;
#212 = DIRECTION ( 'NONE',  ( 0.0000000000000000000, 0.0000000000000000000, 1.000000000000000000 ) ) ;
#213 = APPROVAL_ROLE ( '' ) ;
#214 = PERSON_AND_ORGANIZATION_ROLE ( 'creator' ) ;
#215 = CARTESIAN_POINT ( 'NONE',  ( 0.0000000000000000000, 0.0000000000000000000, 0.0000000000000000000 ) ) ;
#216 = DATE_AND_TIME ( #49, #118 ) ;
#217 = PERSON_AND_ORGANIZATION ( #407, #56 ) ;
#218 = APPROVAL_STATUS ( 'not_yet_approved' ) ;
#219 = APPROVAL_DATE_TIME ( #216, #102 ) ;
#220 = DIRECTION ( 'NONE',  ( 1.000000000000000000, 0.0000000000000000000, 0.0000000000000000000 ) ) ;
#221 = DIRECTION ( 'NONE',  ( -0.0000000000000000000, 1.000000000000000000, 0.0000000000000000000 ) ) ;
#222 = DIRECTION ( 'NONE',  ( -0.0000000000000000000, -0.0000000000000000000, 1.000000000000000000 ) ) ;
#223 = CARTESIAN_POINT ( 'NONE',  ( 0.0000000000000000000, 0.0000000000000000000, -12.50000000000000000 ) ) ;
#224 = PERSON_AND_ORGANIZATION_ROLE ( 'creator' ) ;
#225 = APPROVAL_DATE_TIME ( #228, #94 ) ;
#226 = DIRECTION ( 'NONE',  ( 0.4852377963100024700, 0.8743822282229966000, -0.0000000000000000000 ) ) ;
#227 = DIRECTION ( 'NONE',  ( -1.000000000000000000, -0.0000000000000000000, -0.0000000000000000000 ) ) ;
#228 = DATE_AND_TIME ( #15, #119 ) ;
#229 = DIRECTION ( 'NONE',  ( -0.0000000000000000000, -0.0000000000000000000, -1.000000000000000000 ) ) ;
#230 = DIRECTION ( 'NONE',  ( 1.000000000000000000, 0.0000000000000000000, 0.0000000000000000000 ) ) ;
#231 = CARTESIAN_POINT ( 'NONE',  ( 0.0000000000000000000, 10.31875000000000100, -12.50000000000000000 ) ) ;
#232 = APPROVAL_ROLE ( '' ) ;
#233 = LINE ( 'NONE', #277, #7 ) ;
#234 = CARTESIAN_POINT ( 'NONE',  ( 35.28747281405473800, 11.12628699959462100, 0.0000000000000000000 ) ) ;
#235 = CARTESIAN_POINT ( 'NONE',  ( 0.0000000000000000000, 10.31875000000000100, -12.50000000000000000 ) ) ;
#236 = LINE ( 'NONE', #274, #29 ) ;
#237 = CARTESIAN_POINT ( 'NONE',  ( 0.0000000000000000000, 0.0000000000000000000, -12.50000000000000000 ) ) ;
#238 = DIRECTION ( 'NONE',  ( -0.4852377963099958600, 0.8743822282230003800, 0.0000000000000000000 ) ) ;
#239 = CARTESIAN_POINT ( 'NONE',  ( 35.61981046389539800, 11.72514829399476900, -0.4999999999999935100 ) ) ;
#240 = DIRECTION ( 'NONE',  ( 0.0000000000000000000, 0.0000000000000000000, 1.000000000000000000 ) ) ;
#241 = CARTESIAN_POINT ( 'NONE',  ( 35.28747281405472300, -11.12628699959461900, 0.0000000000000000000 ) ) ;
#242 = DIRECTION ( 'NONE',  ( 1.000000000000000000, 0.0000000000000000000, 0.0000000000000000000 ) ) ;
#243 =( NAMED_UNIT ( * ) SI_UNIT ( $, .STERADIAN. ) SOLID_ANGLE_UNIT ( ) );
#244 =( LENGTH_UNIT ( ) NAMED_UNIT ( * ) SI_UNIT ( .MILLI., .METRE. ) );
#245 = SHAPE_DEFINITION_REPRESENTATION ( #414, #406 ) ;
#246 = PLANE ( 'NONE',  #13 ) ;
#247 = DIRECTION ( 'NONE',  ( -0.4852377963099958600, 0.8743822282230003800, 0.0000000000000000000 ) ) ;
#248 = CARTESIAN_POINT ( 'NONE',  ( 22.25813770531739200, -12.35213770531747500, 0.0000000000000000000 ) ) ;
#249 = DIRECTION ( 'NONE',  ( 0.0000000000000000000, 0.0000000000000000000, 1.000000000000000000 ) ) ;
#250 = CARTESIAN_POINT ( 'NONE',  ( 0.0000000000000000000, 0.0000000000000000000, 0.0000000000000000000 ) ) ;
#251 = LINE ( 'NONE', #248, #63 ) ;
#252 = DIRECTION ( 'NONE',  ( 1.850371707708594100E-016, -1.000000000000000000, 0.0000000000000000000 ) ) ;
#253 = CARTESIAN_POINT ( 'NONE',  ( 35.39848010603578400, 11.32631841522113800, -0.1660209118145525300 ) ) ;
#254 = CARTESIAN_POINT ( 'NONE',  ( 37.50000000000000700, -10.31874999999999600, 0.0000000000000000000 ) ) ;
#255 = MECHANICAL_CONTEXT ( 'NONE', #136, 'mechanical' ) ;
#256 = PERSON_AND_ORGANIZATION ( #407, #56 ) ;
#257 = CARTESIAN_POINT ( 'NONE',  ( 0.0000000000000000000, 0.0000000000000000000, 0.0000000000000000000 ) ) ;
#258 = DIRECTION ( 'NONE',  ( 1.000000000000000000, 0.0000000000000000000, 0.0000000000000000000 ) ) ;
#259 = PERSON_AND_ORGANIZATION_ROLE ( 'design_owner' ) ;
#260 = PERSON_AND_ORGANIZATION ( #407, #56 ) ;
#261 = APPLICATION_PROTOCOL_DEFINITION ( 'international standard', 'config_control_design', 1994, #137 ) ;
#262 = APPLICATION_PROTOCOL_DEFINITION ( 'international standard', 'config_control_design', 1994, #136 ) ;
#263 = DIRECTION ( 'NONE',  ( 0.0000000000000000000, 0.0000000000000000000, 1.000000000000000000 ) ) ;
#264 = APPROVAL_STATUS ( 'not_yet_approved' ) ;
#265 = CARTESIAN_POINT ( 'NONE',  ( 35.28747281405473800, 11.12628699959463500, -12.50000000000000000 ) ) ;
#266 = DIRECTION ( 'NONE',  ( 1.000000000000000000, 0.0000000000000000000, 0.0000000000000000000 ) ) ;
#267 = DIRECTION ( 'NONE',  ( 1.000000000000000000, 0.0000000000000000000, 0.0000000000000000000 ) ) ;
#268 = DIRECTION ( 'NONE',  ( 0.4852377963099958600, -0.8743822282230003800, 0.0000000000000000000 ) ) ;
#269 = PLANE ( 'NONE',  #6 ) ;
#270 = DIRECTION ( 'NONE',  ( 0.0000000000000000000, 0.0000000000000000000, -1.000000000000000000 ) ) ;
#271 = CARTESIAN_POINT ( 'NONE',  ( 35.28747281405473800, -11.12628699959462800, -12.50000000000000000 ) ) ;
#272 = LINE ( 'NONE', #201, #64 ) ;
#273 = CARTESIAN_POINT ( 'NONE',  ( 0.0000000000000000000, 0.0000000000000000000, -0.4999999999999935100 ) ) ;
#274 = CARTESIAN_POINT ( 'NONE',  ( 22.25813770531766900, 12.35213770531740700, 0.0000000000000000000 ) ) ;
#275 = CARTESIAN_POINT ( 'NONE',  ( 35.61981046389540500, -11.72514829399476400, -0.4999999999999935100 ) ) ;
#276 = DIRECTION ( 'NONE',  ( 1.000000000000000000, 1.850371707708594100E-016, -0.0000000000000000000 ) ) ;
#277 = CARTESIAN_POINT ( 'NONE',  ( 35.61981046389540500, -11.72514829399476500, -12.50000000000000000 ) ) ;
#278 = DIRECTION ( 'NONE',  ( 0.0000000000000000000, 0.0000000000000000000, 1.000000000000000000 ) ) ;
#279 = CARTESIAN_POINT ( 'NONE',  ( 1.263682415870175500E-015, -10.31875000000000300, -12.50000000000000000 ) ) ;
#280 = DIRECTION ( 'NONE',  ( -0.0000000000000000000, -0.0000000000000000000, 1.000000000000000000 ) ) ;
#281 = LINE ( 'NONE', #235, #3 ) ;
#282 = CARTESIAN_POINT ( 'NONE',  ( 34.83933072987899500, -10.31874999999999600, -12.50000000000000000 ) ) ;
#283 = DIRECTION ( 'NONE',  ( 0.0000000000000000000, 0.0000000000000000000, 1.000000000000000000 ) ) ;
#284 = DIRECTION ( 'NONE',  ( 1.000000000000000000, 0.0000000000000000000, 0.0000000000000000000 ) ) ;
#285 = CARTESIAN_POINT ( 'NONE',  ( 34.83933072987898100, 10.31875000000000100, -12.50000000000000000 ) ) ;
#286 = DIRECTION ( 'NONE',  ( -0.4852377963100024700, -0.8743822282229966000, 0.0000000000000000000 ) ) ;
#287 = DIRECTION ( 'NONE',  ( 0.0000000000000000000, 0.0000000000000000000, 1.000000000000000000 ) ) ;
#288 = DIRECTION ( 'NONE',  ( 0.0000000000000000000, 0.0000000000000000000, -1.000000000000000000 ) ) ;
#289 = LINE ( 'NONE', #285, #31 ) ;
#290 = DIRECTION ( 'NONE',  ( 1.000000000000000000, 0.0000000000000000000, 0.0000000000000000000 ) ) ;
#291 = DIRECTION ( 'NONE',  ( 0.0000000000000000000, 0.0000000000000000000, 1.000000000000000000 ) ) ;
#292 = CARTESIAN_POINT ( 'NONE',  ( 0.0000000000000000000, 10.31875000000000100, -12.50000000000000000 ) ) ;
#293 = PLANE ( 'NONE',  #28 ) ;
#294 = DIRECTION ( 'NONE',  ( 0.0000000000000000000, 0.0000000000000000000, 1.000000000000000000 ) ) ;
#295 = DIRECTION ( 'NONE',  ( 1.000000000000000000, 0.0000000000000000000, -0.0000000000000000000 ) ) ;
#296 = CARTESIAN_POINT ( 'NONE',  ( 0.0000000000000000000, 0.0000000000000000000, 0.0000000000000000000 ) ) ;
#297 = PRODUCT ( 'WDS-402-222', 'WDS-402-222', '', ( #255 ) ) ;
#298 =( GEOMETRIC_REPRESENTATION_CONTEXT ( 3 ) GLOBAL_UNCERTAINTY_ASSIGNED_CONTEXT ( ( #411 ) ) GLOBAL_UNIT_ASSIGNED_CONTEXT ( ( #244, #163, #243 ) ) REPRESENTATION_CONTEXT ( 'NONE', 'WORKASPACE' ) );
#299 = VERTEX_POINT ( 'NONE', #197 ) ;
#300 = VERTEX_POINT ( 'NONE', #154 ) ;
#301 = VERTEX_POINT ( 'NONE', #192 ) ;
#302 = VERTEX_POINT ( 'NONE', #196 ) ;
#303 = VERTEX_POINT ( 'NONE', #152 ) ;
#304 = VERTEX_POINT ( 'NONE', #140 ) ;
#305 = VERTEX_POINT ( 'NONE', #143 ) ;
#306 = VERTEX_POINT ( 'NONE', #142 ) ;
#307 = VERTEX_POINT ( 'NONE', #145 ) ;
#308 = VERTEX_POINT ( 'NONE', #147 ) ;
#309 = ORIENTED_EDGE ( 'NONE', *, *, #125, .T. ) ;
#310 = VERTEX_POINT ( 'NONE', #146 ) ;
#311 = LINE ( 'NONE', #397, #30 ) ;
#312 = VERTEX_POINT ( 'NONE', #182 ) ;
#313 = CARTESIAN_POINT ( 'NONE',  ( 0.0000000000000000000, 0.0000000000000000000, 0.0000000000000000000 ) ) ;
#314 = DIRECTION ( 'NONE',  ( -1.000000000000000000, 0.0000000000000000000, 0.0000000000000000000 ) ) ;
#315 = DIRECTION ( 'NONE',  ( 0.0000000000000000000, 0.0000000000000000000, -1.000000000000000000 ) ) ;
#316 = DIRECTION ( 'NONE',  ( -0.8743822282229967200, 0.4852377963100024700, 0.0000000000000000000 ) ) ;
#317 = DIRECTION ( 'NONE',  ( -0.4852377963100024100, -0.8743822282229966000, 0.0000000000000000000 ) ) ;
#318 = LINE ( 'NONE', #321, #52 ) ;
#319 = DIRECTION ( 'NONE',  ( -1.000000000000000000, -0.0000000000000000000, 0.0000000000000000000 ) ) ;
#320 = CARTESIAN_POINT ( 'NONE',  ( 34.83933072987898100, 10.31875000000000100, -12.50000000000000000 ) ) ;
#321 = CARTESIAN_POINT ( 'NONE',  ( 0.0000000000000000000, 10.31875000000000100, 0.0000000000000000000 ) ) ;
#322 = DIRECTION ( 'NONE',  ( -0.7071067811865524600, 0.0000000000000000000, -0.7071067811865426900 ) ) ;
#323 = PLANE ( 'NONE',  #27 ) ;
#324 = CARTESIAN_POINT ( 'NONE',  ( -37.00000000000000700, 0.0000000000000000000, 0.0000000000000000000 ) ) ;
#325 = DIRECTION ( 'NONE',  ( 1.000000000000000000, 0.0000000000000000000, 0.0000000000000000000 ) ) ;
#326 = LINE ( 'NONE', #324, #38 ) ;
#327 = EDGE_LOOP ( 'NONE', ( #350, #385, #374, #371, #375, #395 ) ) ;
#328 = DIRECTION ( 'NONE',  ( -0.0000000000000000000, -0.0000000000000000000, 1.000000000000000000 ) ) ;
#329 = EDGE_LOOP ( 'NONE', ( #348, #396, #349, #352 ) ) ;
#330 = EDGE_LOOP ( 'NONE', ( #346, #354, #355, #343, #351 ) ) ;
#331 = EDGE_LOOP ( 'NONE', ( #393, #394, #361, #357, #359, #381, #389 ) ) ;
#332 = EDGE_LOOP ( 'NONE', ( #347, #378, #388, #379 ) ) ;
#333 = EDGE_LOOP ( 'NONE', ( #364, #363, #387, #366 ) ) ;
#334 = EDGE_LOOP ( 'NONE', ( #341, #309, #368, #338 ) ) ;
#335 = EDGE_LOOP ( 'NONE', ( #360, #390, #340, #365 ) ) ;
#336 = EDGE_LOOP ( 'NONE', ( #380, #377, #384, #403, #373, #404 ) ) ;
#337 = CARTESIAN_POINT ( 'NONE',  ( 0.0000000000000000000, 0.0000000000000000000, -11.99999999999999600 ) ) ;
#338 = ORIENTED_EDGE ( 'NONE', *, *, #105, .T. ) ;
#339 = EDGE_LOOP ( 'NONE', ( #369, #370, #376, #367, #382, #372 ) ) ;
#340 = ORIENTED_EDGE ( 'NONE', *, *, #103, .F. ) ;
#341 = ORIENTED_EDGE ( 'NONE', *, *, #101, .T. ) ;
#342 = EDGE_LOOP ( 'NONE', ( #358, #362, #383, #345 ) ) ;
#343 = ORIENTED_EDGE ( 'NONE', *, *, #132, .T. ) ;
#344 = VERTEX_POINT ( 'NONE', #169 ) ;
#345 = ORIENTED_EDGE ( 'NONE', *, *, #96, .F. ) ;
#346 = ORIENTED_EDGE ( 'NONE', *, *, #131, .T. ) ;
#347 = ORIENTED_EDGE ( 'NONE', *, *, #98, .T. ) ;
#348 = ORIENTED_EDGE ( 'NONE', *, *, #122, .F. ) ;
#349 = ORIENTED_EDGE ( 'NONE', *, *, #131, .F. ) ;
#350 = ORIENTED_EDGE ( 'NONE', *, *, #103, .T. ) ;
#351 = ORIENTED_EDGE ( 'NONE', *, *, #97, .T. ) ;
#352 = ORIENTED_EDGE ( 'NONE', *, *, #130, .T. ) ;
#353 = VERTEX_POINT ( 'NONE', #167 ) ;
#354 = ORIENTED_EDGE ( 'NONE', *, *, #114, .T. ) ;
#355 = ORIENTED_EDGE ( 'NONE', *, *, #85, .T. ) ;
#356 = VERTEX_POINT ( 'NONE', #292 ) ;
#357 = ORIENTED_EDGE ( 'NONE', *, *, #122, .T. ) ;
#358 = ORIENTED_EDGE ( 'NONE', *, *, #108, .F. ) ;
#359 = ORIENTED_EDGE ( 'NONE', *, *, #104, .T. ) ;
#360 = ORIENTED_EDGE ( 'NONE', *, *, #132, .F. ) ;
#361 = ORIENTED_EDGE ( 'NONE', *, *, #113, .T. ) ;
#362 = ORIENTED_EDGE ( 'NONE', *, *, #77, .T. ) ;
#363 = ORIENTED_EDGE ( 'NONE', *, *, #113, .F. ) ;
#364 = ORIENTED_EDGE ( 'NONE', *, *, #71, .F. ) ;
#365 = ORIENTED_EDGE ( 'NONE', *, *, #87, .T. ) ;
#366 = ORIENTED_EDGE ( 'NONE', *, *, #114, .F. ) ;
#367 = ORIENTED_EDGE ( 'NONE', *, *, #92, .F. ) ;
#368 = ORIENTED_EDGE ( 'NONE', *, *, #127, .F. ) ;
#369 = ORIENTED_EDGE ( 'NONE', *, *, #84, .F. ) ;
#370 = ORIENTED_EDGE ( 'NONE', *, *, #85, .F. ) ;
#371 = ORIENTED_EDGE ( 'NONE', *, *, #88, .T. ) ;
#372 = ORIENTED_EDGE ( 'NONE', *, *, #128, .F. ) ;
#373 = ORIENTED_EDGE ( 'NONE', *, *, #125, .F. ) ;
#374 = ORIENTED_EDGE ( 'NONE', *, *, #108, .T. ) ;
#375 = ORIENTED_EDGE ( 'NONE', *, *, #127, .T. ) ;
#376 = ORIENTED_EDGE ( 'NONE', *, *, #91, .F. ) ;
#377 = ORIENTED_EDGE ( 'NONE', *, *, #97, .F. ) ;
#378 = ORIENTED_EDGE ( 'NONE', *, *, #105, .F. ) ;
#379 = ORIENTED_EDGE ( 'NONE', *, *, #96, .T. ) ;
#380 = ORIENTED_EDGE ( 'NONE', *, *, #130, .F. ) ;
#381 = ORIENTED_EDGE ( 'NONE', *, *, #101, .F. ) ;
#382 = ORIENTED_EDGE ( 'NONE', *, *, #77, .F. ) ;
#383 = ORIENTED_EDGE ( 'NONE', *, *, #72, .T. ) ;
#384 = ORIENTED_EDGE ( 'NONE', *, *, #87, .F. ) ;
#385 = ORIENTED_EDGE ( 'NONE', *, *, #128, .T. ) ;
#386 = VERTEX_POINT ( 'NONE', #150 ) ;
#387 = ORIENTED_EDGE ( 'NONE', *, *, #91, .T. ) ;
#388 = ORIENTED_EDGE ( 'NONE', *, *, #88, .F. ) ;
#389 = ORIENTED_EDGE ( 'NONE', *, *, #98, .F. ) ;
#390 = ORIENTED_EDGE ( 'NONE', *, *, #84, .T. ) ;
#391 = VERTEX_POINT ( 'NONE', #271 ) ;
#392 = VERTEX_POINT ( 'NONE', #149 ) ;
#393 = ORIENTED_EDGE ( 'NONE', *, *, #72, .F. ) ;
#394 = ORIENTED_EDGE ( 'NONE', *, *, #92, .T. ) ;
#395 = ORIENTED_EDGE ( 'NONE', *, *, #126, .T. ) ;
#396 = ORIENTED_EDGE ( 'NONE', *, *, #71, .T. ) ;
#397 = CARTESIAN_POINT ( 'NONE',  ( 34.83933072987898100, 10.31875000000000100, -0.4999999999999923900 ) ) ;
#398 = DIRECTION ( 'NONE',  ( 0.0000000000000000000, 0.0000000000000000000, 1.000000000000000000 ) ) ;
#399 = CARTESIAN_POINT ( 'NONE',  ( 0.0000000000000000000, 0.0000000000000000000, 0.0000000000000000000 ) ) ;
#400 = DIRECTION ( 'NONE',  ( 0.0000000000000000000, 0.0000000000000000000, -1.000000000000000000 ) ) ;
#401 = DIRECTION ( 'NONE',  ( -1.000000000000000000, 0.0000000000000000000, 0.0000000000000000000 ) ) ;
#402 = PLANE ( 'NONE',  #23 ) ;
#403 = ORIENTED_EDGE ( 'NONE', *, *, #126, .F. ) ;
#404 = ORIENTED_EDGE ( 'NONE', *, *, #104, .F. ) ;
#405 = B_SPLINE_CURVE_WITH_KNOTS ( 'NONE', 3,
 ( #157, #159, #166, #193 ),
 .UNSPECIFIED., .F., .F.,
 ( 4, 4 ),
 ( 0.0000000000000000000, 0.0008479877141988670600 ),
 .UNSPECIFIED. ) ;
#406 = ADVANCED_BREP_SHAPE_REPRESENTATION ( 'WDS-402-222', ( #412, #25 ), #298 ) ;
#407 = PERSON ( 'UNSPECIFIED', 'UNSPECIFIED', 'UNSPECIFIED', ('UNSPECIFIED'), ('UNSPECIFIED'), ('UNSPECIFIED') ) ;
#408 = B_SPLINE_CURVE_WITH_KNOTS ( 'NONE', 3,
 ( #234, #253, #205, #239 ),
 .UNSPECIFIED., .F., .F.,
 ( 4, 4 ),
 ( 0.0000000000000000000, 0.0008479877141988689100 ),
 .UNSPECIFIED. ) ;
#409 = B_SPLINE_CURVE_WITH_KNOTS ( 'NONE', 3,
 ( #275, #184, #151, #241 ),
 .UNSPECIFIED., .F., .F.,
 ( 4, 4 ),
 ( 2.377841001298279200E-018, 0.0008479877141988718300 ),
 .UNSPECIFIED. ) ;
#410 = B_SPLINE_CURVE_WITH_KNOTS ( 'NONE', 3,
 ( #202, #176, #183, #265 ),
 .UNSPECIFIED., .F., .F.,
 ( 4, 4 ),
 ( 0.0000000000000000000, 0.0008479877141988650000 ),
 .UNSPECIFIED. ) ;
#411 = UNCERTAINTY_MEASURE_WITH_UNIT (LENGTH_MEASURE( 1.000000000000000100E-005 ), #244, 'distance_accuracy_value', 'NONE');
#412 = MANIFOLD_SOLID_BREP ( 'Chamfer2', #36 ) ;
#413 = DESIGN_CONTEXT ( 'detailed design', #137, 'design' ) ;
#414 = PRODUCT_DEFINITION_SHAPE ( 'NONE', 'NONE',  #93 ) ;
ENDSEC;
END-ISO-10303-21;
