ISO-10303-21;
HEADER;
FILE_DESCRIPTION (( 'STEP AP203' ),
    '1' );
FILE_NAME ('WDS-402-220.step',
    '2012-04-05T12:53:51',
    ( 'sysAdmin' ),
    ( 'SolidWorks' ),
    'SwSTEP 2.0',
    'SolidWorks 2012',
    '' );
FILE_SCHEMA (( 'CONFIG_CONTROL_DESIGN' ));
ENDSEC;

DATA;
#1 = CYLINDRICAL_SURFACE ( 'NONE', #16, 8.500000000000001800 ) ;
#2 = VECTOR ( 'NONE', #322, 1000.000000000000000 ) ;
#3 = AXIS2_PLACEMENT_3D ( 'NONE', #382, #379, #381 ) ;
#4 = AXIS2_PLACEMENT_3D ( 'NONE', #250, #314, #302 ) ;
#5 = VECTOR ( 'NONE', #393, 1000.000000000000000 ) ;
#6 = VECTOR ( 'NONE', #371, 1000.000000000000000 ) ;
#7 = VECTOR ( 'NONE', #339, 1000.000000000000000 ) ;
#8 = FACE_OUTER_BOUND ( 'NONE', #70, .T. ) ;
#9 = VECTOR ( 'NONE', #258, 1000.000000000000200 ) ;
#10 = AXIS2_PLACEMENT_3D ( 'NONE', #357, #359, #363 ) ;
#11 = AXIS2_PLACEMENT_3D ( 'NONE', #207, #257, #248 ) ;
#12 = VECTOR ( 'NONE', #236, 1000.000000000000000 ) ;
#13 = FACE_OUTER_BOUND ( 'NONE', #69, .T. ) ;
#14 = AXIS2_PLACEMENT_3D ( 'NONE', #361, #362, #366 ) ;
#15 = VECTOR ( 'NONE', #279, 1000.000000000000100 ) ;
#16 = AXIS2_PLACEMENT_3D ( 'NONE', #388, #386, #387 ) ;
#17 = AXIS2_PLACEMENT_3D ( 'NONE', #285, #289, #286 ) ;
#18 = AXIS2_PLACEMENT_3D ( 'NONE', #274, #283, #287 ) ;
#19 = VECTOR ( 'NONE', #344, 1000.000000000000000 ) ;
#20 = FACE_OUTER_BOUND ( 'NONE', #50, .T. ) ;
#21 = AXIS2_PLACEMENT_3D ( 'NONE', #318, #337, #340 ) ;
#22 = FACE_OUTER_BOUND ( 'NONE', #72, .T. ) ;
#23 = FACE_OUTER_BOUND ( 'NONE', #54, .T. ) ;
#24 = AXIS2_PLACEMENT_3D ( 'NONE', #374, #372, #376 ) ;
#25 = FACE_OUTER_BOUND ( 'NONE', #68, .T. ) ;
#26 = AXIS2_PLACEMENT_3D ( 'NONE', #352, #355, #353 ) ;
#27 = VECTOR ( 'NONE', #395, 1000.000000000000100 ) ;
#28 = AXIS2_PLACEMENT_3D ( 'NONE', #203, #171, #260 ) ;
#29 = FACE_OUTER_BOUND ( 'NONE', #55, .T. ) ;
#30 = VECTOR ( 'NONE', #296, 1000.000000000000000 ) ;
#31 = AXIS2_PLACEMENT_3D ( 'NONE', #358, #356, #360 ) ;
#32 = VECTOR ( 'NONE', #181, 1000.000000000000000 ) ;
#33 = AXIS2_PLACEMENT_3D ( 'NONE', #237, #245, #234 ) ;
#34 = VECTOR ( 'NONE', #174, 1000.000000000000000 ) ;
#35 = VECTOR ( 'NONE', #282, 1000.000000000000000 ) ;
#36 = FACE_OUTER_BOUND ( 'NONE', #56, .T. ) ;
#37 = AXIS2_PLACEMENT_3D ( 'NONE', #375, #377, #380 ) ;
#38 = FACE_OUTER_BOUND ( 'NONE', #57, .T. ) ;
#39 = VECTOR ( 'NONE', #298, 1000.000000000000000 ) ;
#40 = FACE_OUTER_BOUND ( 'NONE', #59, .T. ) ;
#41 = AXIS2_PLACEMENT_3D ( 'NONE', #341, #345, #346 ) ;
#42 = FACE_OUTER_BOUND ( 'NONE', #71, .T. ) ;
#43 = AXIS2_PLACEMENT_3D ( 'NONE', #326, #324, #325 ) ;
#44 = AXIS2_PLACEMENT_3D ( 'NONE', #364, #365, #369 ) ;
#45 = CLOSED_SHELL ( 'NONE', ( #121, #125, #130, #124, #135, #123, #87, #133, #126, #129, #132 ) ) ;
#46 = CYLINDRICAL_SURFACE ( 'NONE', #10, 37.50000000000000700 ) ;
#47 = AXIS2_PLACEMENT_3D ( 'NONE', #390, #398, #396 ) ;
#48 = VECTOR ( 'NONE', #278, 1000.000000000000200 ) ;
#49 = AXIS2_PLACEMENT_3D ( 'NONE', #385, #383, #384 ) ;
#50 = EDGE_LOOP ( 'NONE', ( #238, #249, #235, #233, #269 ) ) ;
#51 = ORIENTED_EDGE ( 'NONE', *, *, #113, .T. ) ;
#52 = ORIENTED_EDGE ( 'NONE', *, *, #128, .F. ) ;
#53 = ORIENTED_EDGE ( 'NONE', *, *, #113, .F. ) ;
#54 = EDGE_LOOP ( 'NONE', ( #65, #60, #51, #67 ) ) ;
#55 = EDGE_LOOP ( 'NONE', ( #173, #256, #225, #262 ) ) ;
#56 = EDGE_LOOP ( 'NONE', ( #66, #64, #53, #63, #52, #268 ) ) ;
#57 = EDGE_LOOP ( 'NONE', ( #201, #193, #58, #253, #62, #61 ) ) ;
#58 = ORIENTED_EDGE ( 'NONE', *, *, #91, .F. ) ;
#59 = EDGE_LOOP ( 'NONE', ( #230, #244, #265, #242 ) ) ;
#60 = ORIENTED_EDGE ( 'NONE', *, *, #111, .F. ) ;
#61 = ORIENTED_EDGE ( 'NONE', *, *, #83, .F. ) ;
#62 = ORIENTED_EDGE ( 'NONE', *, *, #118, .F. ) ;
#63 = ORIENTED_EDGE ( 'NONE', *, *, #96, .F. ) ;
#64 = ORIENTED_EDGE ( 'NONE', *, *, #110, .F. ) ;
#65 = ORIENTED_EDGE ( 'NONE', *, *, #84, .F. ) ;
#66 = ORIENTED_EDGE ( 'NONE', *, *, #116, .F. ) ;
#67 = ORIENTED_EDGE ( 'NONE', *, *, #112, .F. ) ;
#68 = EDGE_LOOP ( 'NONE', ( #212, #263, #226, #184 ) ) ;
#69 = EDGE_LOOP ( 'NONE', ( #264, #266, #305, #270, #196, #261, #232 ) ) ;
#70 = EDGE_LOOP ( 'NONE', ( #227, #187, #251, #214 ) ) ;
#71 = EDGE_LOOP ( 'NONE', ( #246, #271, #228, #224, #216, #209 ) ) ;
#72 = EDGE_LOOP ( 'NONE', ( #223, #267, #241, #219 ) ) ;
#73 = PRODUCT_RELATED_PRODUCT_CATEGORY ( 'detail', '', ( #143 ) ) ;
#74 = LOCAL_TIME ( 8, 53, 51.00000000000000000, #151 ) ;
#75 = APPROVAL ( #200, 'UNSPECIFIED' ) ;
#76 = CIRCLE ( 'NONE', #21, 37.50000000000000700 ) ;
#77 = CIRCLE ( 'NONE', #11, 8.500000000000001800 ) ;
#78 = CIRCLE ( 'NONE', #18, 37.00000000000000700 ) ;
#79 = EDGE_CURVE ( 'NONE', #273, #327, #189, .T. ) ;
#80 = CIRCLE ( 'NONE', #17, 37.50000000000000700 ) ;
#81 = CIRCLE ( 'NONE', #33, 8.500000000000001800 ) ;
#82 = EDGE_CURVE ( 'NONE', #327, #191, #217, .T. ) ;
#83 = EDGE_CURVE ( 'NONE', #307, #191, #192, .T. ) ;
#84 = EDGE_CURVE ( 'NONE', #185, #309, #222, .T. ) ;
#85 = EDGE_CURVE ( 'NONE', #204, #182, #131, .T. ) ;
#86 = PRODUCT_DEFINITION ( 'UNKNOWN', '', #144, #140 ) ;
#87 = ADVANCED_FACE ( 'NONE', ( #8 ), #313, .F. ) ;
#88 = EDGE_CURVE ( 'NONE', #180, #327, #77, .T. ) ;
#89 = EDGE_CURVE ( 'NONE', #240, #273, #81, .T. ) ;
#90 = CONICAL_SURFACE ( 'NONE', #49, 37.50000000000000700, 0.7853981633974447300 ) ;
#91 = EDGE_CURVE ( 'NONE', #247, #182, #409, .T. ) ;
#92 = APPROVAL ( #231, 'UNSPECIFIED' ) ;
#93 = CC_DESIGN_PERSON_AND_ORGANIZATION_ASSIGNMENT ( #177, #208, ( #86 ) ) ;
#94 = LOCAL_TIME ( 8, 53, 51.00000000000000000, #160 ) ;
#95 = CIRCLE ( 'NONE', #44, 37.00000000000000700 ) ;
#96 = EDGE_CURVE ( 'NONE', #306, #272, #275, .T. ) ;
#97 = LOCAL_TIME ( 8, 53, 51.00000000000000000, #152 ) ;
#98 = CONICAL_SURFACE ( 'NONE', #41, 37.00000000000000700, 0.7853981633974552700 ) ;
#99 = CIRCLE ( 'NONE', #47, 37.00000000000000700 ) ;
#100 = CC_DESIGN_DATE_AND_TIME_ASSIGNMENT ( #168, #195, ( #86 ) ) ;
#101 = CC_DESIGN_PERSON_AND_ORGANIZATION_ASSIGNMENT ( #308, #299, ( #143 ) ) ;
#102 = LOCAL_TIME ( 8, 53, 51.00000000000000000, #155 ) ;
#103 = EDGE_CURVE ( 'NONE', #188, #247, #277, .T. ) ;
#104 = CC_DESIGN_PERSON_AND_ORGANIZATION_ASSIGNMENT ( #255, #211, ( #144 ) ) ;
#105 = CC_DESIGN_PERSON_AND_ORGANIZATION_ASSIGNMENT ( #254, #178, ( #145 ) ) ;
#106 = LOCAL_TIME ( 8, 53, 51.00000000000000000, #162 ) ;
#107 = CC_DESIGN_DATE_AND_TIME_ASSIGNMENT ( #172, #186, ( #145 ) ) ;
#108 = CC_DESIGN_PERSON_AND_ORGANIZATION_ASSIGNMENT ( #311, #304, ( #144 ) ) ;
#109 = APPROVAL ( #179, 'UNSPECIFIED' ) ;
#110 = EDGE_CURVE ( 'NONE', #167, #204, #280, .T. ) ;
#111 = EDGE_CURVE ( 'NONE', #272, #185, #78, .T. ) ;
#112 = EDGE_CURVE ( 'NONE', #309, #167, #80, .T. ) ;
#113 = EDGE_CURVE ( 'NONE', #272, #167, #412, .T. ) ;
#114 = EDGE_CURVE ( 'NONE', #301, #240, #293, .T. ) ;
#115 = EDGE_CURVE ( 'NONE', #306, #180, #297, .T. ) ;
#116 = EDGE_CURVE ( 'NONE', #204, #205, #406, .T. ) ;
#117 = EDGE_CURVE ( 'NONE', #240, #180, #320, .T. ) ;
#118 = EDGE_CURVE ( 'NONE', #191, #188, #321, .T. ) ;
#119 = EDGE_CURVE ( 'NONE', #303, #309, #76, .T. ) ;
#120 = EDGE_CURVE ( 'NONE', #273, #188, #342, .T. ) ;
#121 = ADVANCED_FACE ( 'NONE', ( #40 ), #98, .T. ) ;
#122 = EDGE_CURVE ( 'NONE', #303, #307, #410, .T. ) ;
#123 = ADVANCED_FACE ( 'NONE', ( #22 ), #351, .F. ) ;
#124 = ADVANCED_FACE ( 'NONE', ( #13 ), #354, .T. ) ;
#125 = ADVANCED_FACE ( 'NONE', ( #20 ), #46, .T. ) ;
#126 = ADVANCED_FACE ( 'NONE', ( #23 ), #134, .T. ) ;
#127 = EDGE_CURVE ( 'NONE', #185, #307, #95, .T. ) ;
#128 = EDGE_CURVE ( 'NONE', #301, #306, #368, .T. ) ;
#129 = ADVANCED_FACE ( 'NONE', ( #36 ), #367, .F. ) ;
#130 = ADVANCED_FACE ( 'NONE', ( #42 ), #373, .F. ) ;
#131 = CIRCLE ( 'NONE', #28, 37.50000000000000700 ) ;
#132 = ADVANCED_FACE ( 'NONE', ( #38 ), #378, .T. ) ;
#133 = ADVANCED_FACE ( 'NONE', ( #25 ), #90, .T. ) ;
#134 = CONICAL_SURFACE ( 'NONE', #14, 37.00000000000000700, 0.7853981633974552700 ) ;
#135 = ADVANCED_FACE ( 'NONE', ( #29 ), #1, .F. ) ;
#136 = EDGE_CURVE ( 'NONE', #182, #303, #391, .T. ) ;
#137 = EDGE_CURVE ( 'NONE', #205, #301, #392, .T. ) ;
#138 = EDGE_CURVE ( 'NONE', #247, #205, #99, .T. ) ;
#139 =( GEOMETRIC_REPRESENTATION_CONTEXT ( 3 ) GLOBAL_UNCERTAINTY_ASSIGNED_CONTEXT ( ( #407 ) ) GLOBAL_UNIT_ASSIGNED_CONTEXT ( ( #333, #332, #331 ) ) REPRESENTATION_CONTEXT ( 'NONE', 'WORKASPACE' ) );
#140 = DESIGN_CONTEXT ( 'detailed design', #414, 'design' ) ;
#141 = PRODUCT_DEFINITION_SHAPE ( 'NONE', 'NONE',  #86 ) ;
#142 = MANIFOLD_SOLID_BREP ( 'Chamfer2', #45 ) ;
#143 = PRODUCT ( 'WDS-402-220', 'WDS-402-220', '', ( #312 ) ) ;
#144 = PRODUCT_DEFINITION_FORMATION_WITH_SPECIFIED_SOURCE ( 'ANY', '', #143, .NOT_KNOWN. ) ;
#145 = SECURITY_CLASSIFICATION ( '', '', #220 ) ;
#146 = CALENDAR_DATE ( 2012, 5, 4 ) ;
#147 = CC_DESIGN_APPROVAL ( #92, ( #86 ) ) ;
#148 = APPROVAL_PERSON_ORGANIZATION ( #183, #109, #169 ) ;
#149 = APPROVAL_PERSON_ORGANIZATION ( #336, #92, #197 ) ;
#150 = CALENDAR_DATE ( 2012, 5, 4 ) ;
#151 = COORDINATED_UNIVERSAL_TIME_OFFSET ( 5, 0, .BEHIND. ) ;
#152 = COORDINATED_UNIVERSAL_TIME_OFFSET ( 5, 0, .BEHIND. ) ;
#153 = CALENDAR_DATE ( 2012, 5, 4 ) ;
#154 = CALENDAR_DATE ( 2012, 5, 4 ) ;
#155 = COORDINATED_UNIVERSAL_TIME_OFFSET ( 5, 0, .BEHIND. ) ;
#156 = ORGANIZATION ( 'UNSPECIFIED', 'UNSPECIFIED', '' ) ;
#157 = CC_DESIGN_APPROVAL ( #75, ( #145 ) ) ;
#158 = CC_DESIGN_APPROVAL ( #109, ( #144 ) ) ;
#159 = CC_DESIGN_SECURITY_CLASSIFICATION ( #145, ( #144 ) ) ;
#160 = COORDINATED_UNIVERSAL_TIME_OFFSET ( 5, 0, .BEHIND. ) ;
#161 = APPROVAL_PERSON_ORGANIZATION ( #259, #75, #310 ) ;
#162 = COORDINATED_UNIVERSAL_TIME_OFFSET ( 5, 0, .BEHIND. ) ;
#163 = CALENDAR_DATE ( 2012, 5, 4 ) ;
#164 = DATE_AND_TIME ( #150, #97 ) ;
#165 = APPROVAL_DATE_TIME ( #166, #109 ) ;
#166 = DATE_AND_TIME ( #154, #102 ) ;
#167 = VERTEX_POINT ( 'NONE', #397 ) ;
#168 = DATE_AND_TIME ( #153, #94 ) ;
#169 = APPROVAL_ROLE ( '' ) ;
#170 = CARTESIAN_POINT ( 'NONE',  ( 35.27463006827379400, 8.500000000000001800, -12.50000000000000000 ) ) ;
#171 = DIRECTION ( 'NONE',  ( -0.0000000000000000000, -0.0000000000000000000, 1.000000000000000000 ) ) ;
#172 = DATE_AND_TIME ( #163, #106 ) ;
#173 = ORIENTED_EDGE ( 'NONE', *, *, #88, .T. ) ;
#174 = DIRECTION ( 'NONE',  ( 1.000000000000000000, 9.251858538542970300E-017, -0.0000000000000000000 ) ) ;
#175 = CARTESIAN_POINT ( 'NONE',  ( 21.61150307303983800, 13.45150307303965700, 0.0000000000000000000 ) ) ;
#176 = CARTESIAN_POINT ( 'NONE',  ( 1.040949779275250100E-015, -8.500000000000000000, -12.50000000000000000 ) ) ;
#177 = PERSON_AND_ORGANIZATION ( #411, #156 ) ;
#178 = PERSON_AND_ORGANIZATION_ROLE ( 'classification_officer' ) ;
#179 = APPROVAL_STATUS ( 'not_yet_approved' ) ;
#180 = VERTEX_POINT ( 'NONE', #399 ) ;
#181 = DIRECTION ( 'NONE',  ( -0.0000000000000000000, -0.0000000000000000000, 1.000000000000000000 ) ) ;
#182 = VERTEX_POINT ( 'NONE', #403 ) ;
#183 = PERSON_AND_ORGANIZATION ( #411, #156 ) ;
#184 = ORIENTED_EDGE ( 'NONE', *, *, #91, .T. ) ;
#185 = VERTEX_POINT ( 'NONE', #401 ) ;
#186 = DATE_TIME_ROLE ( 'classification_date' ) ;
#187 = ORIENTED_EDGE ( 'NONE', *, *, #118, .T. ) ;
#188 = VERTEX_POINT ( 'NONE', #400 ) ;
#189 = LINE ( 'NONE', #176, #32 ) ;
#190 = CARTESIAN_POINT ( 'NONE',  ( 36.16239187146913300, -9.926299115697840800, -11.99999999999999600 ) ) ;
#191 = VERTEX_POINT ( 'NONE', #402 ) ;
#192 = LINE ( 'NONE', #175, #9 ) ;
#193 = ORIENTED_EDGE ( 'NONE', *, *, #136, .F. ) ;
#194 = CARTESIAN_POINT ( 'NONE',  ( 36.16239187146912600, -9.926299115697846200, -0.4999999999999935100 ) ) ;
#195 = DATE_TIME_ROLE ( 'creation_date' ) ;
#196 = ORIENTED_EDGE ( 'NONE', *, *, #83, .T. ) ;
#197 = APPROVAL_ROLE ( '' ) ;
#198 = CARTESIAN_POINT ( 'NONE',  ( 37.50000000000000700, -8.499999999999996400, 0.0000000000000000000 ) ) ;
#199 = CARTESIAN_POINT ( 'NONE',  ( 35.80047549514877400, -9.344835703277626100, -12.50000000000000000 ) ) ;
#200 = APPROVAL_STATUS ( 'not_yet_approved' ) ;
#201 = ORIENTED_EDGE ( 'NONE', *, *, #122, .F. ) ;
#202 = CARTESIAN_POINT ( 'NONE',  ( 1.040949779275250100E-015, -8.500000000000000000, -12.50000000000000000 ) ) ;
#203 = CARTESIAN_POINT ( 'NONE',  ( 0.0000000000000000000, 0.0000000000000000000, -11.99999999999999600 ) ) ;
#204 = VERTEX_POINT ( 'NONE', #404 ) ;
#205 = VERTEX_POINT ( 'NONE', #405 ) ;
#206 = CARTESIAN_POINT ( 'NONE',  ( 0.0000000000000000000, 8.500000000000003600, -12.50000000000000000 ) ) ;
#207 = CARTESIAN_POINT ( 'NONE',  ( 0.0000000000000000000, 0.0000000000000000000, 0.0000000000000000000 ) ) ;
#208 = PERSON_AND_ORGANIZATION_ROLE ( 'creator' ) ;
#209 = ORIENTED_EDGE ( 'NONE', *, *, #103, .T. ) ;
#210 = CARTESIAN_POINT ( 'NONE',  ( 35.80047549514878100, 9.344835703277633200, 0.0000000000000000000 ) ) ;
#211 = PERSON_AND_ORGANIZATION_ROLE ( 'design_supplier' ) ;
#212 = ORIENTED_EDGE ( 'NONE', *, *, #85, .F. ) ;
#213 = CARTESIAN_POINT ( 'NONE',  ( 36.04199808033984500, -9.732871602591124800, -12.16729991482698000 ) ) ;
#214 = ORIENTED_EDGE ( 'NONE', *, *, #79, .T. ) ;
#215 = APPROVAL_DATE_TIME ( #164, #92 ) ;
#216 = ORIENTED_EDGE ( 'NONE', *, *, #120, .T. ) ;
#217 = LINE ( 'NONE', #198, #34 ) ;
#218 = CARTESIAN_POINT ( 'NONE',  ( 35.80047549514877400, -9.344835703277624400, 0.0000000000000000000 ) ) ;
#219 = ORIENTED_EDGE ( 'NONE', *, *, #117, .F. ) ;
#220 = SECURITY_CLASSIFICATION_LEVEL ( 'unclassified' ) ;
#221 = CARTESIAN_POINT ( 'NONE',  ( 35.27463006827379400, 8.500000000000001800, 0.0000000000000000000 ) ) ;
#222 = LINE ( 'NONE', #252, #12 ) ;
#223 = ORIENTED_EDGE ( 'NONE', *, *, #114, .F. ) ;
#224 = ORIENTED_EDGE ( 'NONE', *, *, #89, .T. ) ;
#225 = ORIENTED_EDGE ( 'NONE', *, *, #89, .F. ) ;
#226 = ORIENTED_EDGE ( 'NONE', *, *, #138, .F. ) ;
#227 = ORIENTED_EDGE ( 'NONE', *, *, #82, .T. ) ;
#228 = ORIENTED_EDGE ( 'NONE', *, *, #114, .T. ) ;
#229 = CARTESIAN_POINT ( 'NONE',  ( 35.80047549514877400, -9.344835703277626100, -12.50000000000000000 ) ) ;
#230 = ORIENTED_EDGE ( 'NONE', *, *, #127, .F. ) ;
#231 = APPROVAL_STATUS ( 'not_yet_approved' ) ;
#232 = ORIENTED_EDGE ( 'NONE', *, *, #88, .F. ) ;
#233 = ORIENTED_EDGE ( 'NONE', *, *, #85, .T. ) ;
#234 = DIRECTION ( 'NONE',  ( 1.000000000000000000, 0.0000000000000000000, 0.0000000000000000000 ) ) ;
#235 = ORIENTED_EDGE ( 'NONE', *, *, #110, .T. ) ;
#236 = DIRECTION ( 'NONE',  ( -0.7071067811865524600, 0.0000000000000000000, -0.7071067811865426900 ) ) ;
#237 = CARTESIAN_POINT ( 'NONE',  ( 0.0000000000000000000, 0.0000000000000000000, -12.50000000000000000 ) ) ;
#238 = ORIENTED_EDGE ( 'NONE', *, *, #119, .T. ) ;
#239 = APPLICATION_PROTOCOL_DEFINITION ( 'international standard', 'config_control_design', 1994, #414 ) ;
#240 = VERTEX_POINT ( 'NONE', #206 ) ;
#241 = ORIENTED_EDGE ( 'NONE', *, *, #115, .T. ) ;
#242 = ORIENTED_EDGE ( 'NONE', *, *, #122, .T. ) ;
#243 = CARTESIAN_POINT ( 'NONE',  ( 35.92136266179442600, -9.539055885161223700, -12.33397908818544800 ) ) ;
#244 = ORIENTED_EDGE ( 'NONE', *, *, #84, .T. ) ;
#245 = DIRECTION ( 'NONE',  ( 0.0000000000000000000, 0.0000000000000000000, 1.000000000000000000 ) ) ;
#246 = ORIENTED_EDGE ( 'NONE', *, *, #138, .T. ) ;
#247 = VERTEX_POINT ( 'NONE', #199 ) ;
#248 = DIRECTION ( 'NONE',  ( 1.000000000000000000, 0.0000000000000000000, 0.0000000000000000000 ) ) ;
#249 = ORIENTED_EDGE ( 'NONE', *, *, #112, .T. ) ;
#250 = CARTESIAN_POINT ( 'NONE',  ( 37.50000000000000700, -8.499999999999996400, -12.50000000000000000 ) ) ;
#251 = ORIENTED_EDGE ( 'NONE', *, *, #120, .F. ) ;
#252 = CARTESIAN_POINT ( 'NONE',  ( -37.00000000000000700, 0.0000000000000000000, 0.0000000000000000000 ) ) ;
#253 = ORIENTED_EDGE ( 'NONE', *, *, #103, .F. ) ;
#254 = PERSON_AND_ORGANIZATION ( #411, #156 ) ;
#255 = PERSON_AND_ORGANIZATION ( #411, #156 ) ;
#256 = ORIENTED_EDGE ( 'NONE', *, *, #79, .F. ) ;
#257 = DIRECTION ( 'NONE',  ( 0.0000000000000000000, 0.0000000000000000000, 1.000000000000000000 ) ) ;
#258 = DIRECTION ( 'NONE',  ( -0.5284249466721100400, 0.8489800208100173300, 0.0000000000000000000 ) ) ;
#259 = PERSON_AND_ORGANIZATION ( #411, #156 ) ;
#260 = DIRECTION ( 'NONE',  ( 1.000000000000000000, 0.0000000000000000000, 0.0000000000000000000 ) ) ;
#261 = ORIENTED_EDGE ( 'NONE', *, *, #82, .F. ) ;
#262 = ORIENTED_EDGE ( 'NONE', *, *, #117, .T. ) ;
#263 = ORIENTED_EDGE ( 'NONE', *, *, #116, .T. ) ;
#264 = ORIENTED_EDGE ( 'NONE', *, *, #115, .F. ) ;
#265 = ORIENTED_EDGE ( 'NONE', *, *, #119, .F. ) ;
#266 = ORIENTED_EDGE ( 'NONE', *, *, #96, .T. ) ;
#267 = ORIENTED_EDGE ( 'NONE', *, *, #128, .T. ) ;
#268 = ORIENTED_EDGE ( 'NONE', *, *, #137, .F. ) ;
#269 = ORIENTED_EDGE ( 'NONE', *, *, #136, .T. ) ;
#270 = ORIENTED_EDGE ( 'NONE', *, *, #127, .T. ) ;
#271 = ORIENTED_EDGE ( 'NONE', *, *, #137, .T. ) ;
#272 = VERTEX_POINT ( 'NONE', #210 ) ;
#273 = VERTEX_POINT ( 'NONE', #202 ) ;
#274 = CARTESIAN_POINT ( 'NONE',  ( 0.0000000000000000000, 0.0000000000000000000, 0.0000000000000000000 ) ) ;
#275 = LINE ( 'NONE', #276, #15 ) ;
#276 = CARTESIAN_POINT ( 'NONE',  ( 21.61150307303966400, -13.45150307303968500, 0.0000000000000000000 ) ) ;
#277 = LINE ( 'NONE', #281, #48 ) ;
#278 = DIRECTION ( 'NONE',  ( 0.5284249466721100400, -0.8489800208100173300, 0.0000000000000000000 ) ) ;
#279 = DIRECTION ( 'NONE',  ( 0.5284249466721140400, 0.8489800208100150000, -0.0000000000000000000 ) ) ;
#280 = LINE ( 'NONE', #284, #35 ) ;
#281 = CARTESIAN_POINT ( 'NONE',  ( 35.27463006827380100, -8.499999999999996400, -12.50000000000000000 ) ) ;
#282 = DIRECTION ( 'NONE',  ( -0.0000000000000000000, -0.0000000000000000000, -1.000000000000000000 ) ) ;
#283 = DIRECTION ( 'NONE',  ( 0.0000000000000000000, 0.0000000000000000000, 1.000000000000000000 ) ) ;
#284 = CARTESIAN_POINT ( 'NONE',  ( 36.16239187146913300, 9.926299115697846200, -12.50000000000000000 ) ) ;
#285 = CARTESIAN_POINT ( 'NONE',  ( 0.0000000000000000000, 0.0000000000000000000, -0.4999999999999935100 ) ) ;
#286 = DIRECTION ( 'NONE',  ( 1.000000000000000000, 0.0000000000000000000, 0.0000000000000000000 ) ) ;
#287 = DIRECTION ( 'NONE',  ( 1.000000000000000000, 0.0000000000000000000, 0.0000000000000000000 ) ) ;
#288 = CARTESIAN_POINT ( 'NONE',  ( 35.92136266179443300, 9.539055885161229000, -0.1660209118145499500 ) ) ;
#289 = DIRECTION ( 'NONE',  ( 0.0000000000000000000, 0.0000000000000000000, -1.000000000000000000 ) ) ;
#290 = CARTESIAN_POINT ( 'NONE',  ( 36.04199808033984500, 9.732871602591128400, -0.3327000851730135800 ) ) ;
#291 = CARTESIAN_POINT ( 'NONE',  ( 35.80047549514878100, 9.344835703277633200, 0.0000000000000000000 ) ) ;
#292 = CARTESIAN_POINT ( 'NONE',  ( 36.16239187146913300, 9.926299115697849700, -11.99999999999999600 ) ) ;
#293 = LINE ( 'NONE', #295, #30 ) ;
#294 = CARTESIAN_POINT ( 'NONE',  ( 36.16239187146912600, 9.926299115697844400, -0.4999999999999935100 ) ) ;
#295 = CARTESIAN_POINT ( 'NONE',  ( 0.0000000000000000000, 8.500000000000003600, -12.50000000000000000 ) ) ;
#296 = DIRECTION ( 'NONE',  ( -1.000000000000000000, -0.0000000000000000000, -0.0000000000000000000 ) ) ;
#297 = LINE ( 'NONE', #300, #39 ) ;
#298 = DIRECTION ( 'NONE',  ( -1.000000000000000000, -0.0000000000000000000, 0.0000000000000000000 ) ) ;
#299 = PERSON_AND_ORGANIZATION_ROLE ( 'design_owner' ) ;
#300 = CARTESIAN_POINT ( 'NONE',  ( 0.0000000000000000000, 8.500000000000003600, 0.0000000000000000000 ) ) ;
#301 = VERTEX_POINT ( 'NONE', #170 ) ;
#302 = DIRECTION ( 'NONE',  ( 1.000000000000000000, 9.251858538542970300E-017, 0.0000000000000000000 ) ) ;
#303 = VERTEX_POINT ( 'NONE', #194 ) ;
#304 = PERSON_AND_ORGANIZATION_ROLE ( 'creator' ) ;
#305 = ORIENTED_EDGE ( 'NONE', *, *, #111, .T. ) ;
#306 = VERTEX_POINT ( 'NONE', #221 ) ;
#307 = VERTEX_POINT ( 'NONE', #218 ) ;
#308 = PERSON_AND_ORGANIZATION ( #411, #156 ) ;
#309 = VERTEX_POINT ( 'NONE', #335 ) ;
#310 = APPROVAL_ROLE ( '' ) ;
#311 = PERSON_AND_ORGANIZATION ( #411, #156 ) ;
#312 = MECHANICAL_CONTEXT ( 'NONE', #413, 'mechanical' ) ;
#313 = PLANE ( 'NONE',  #4 ) ;
#314 = DIRECTION ( 'NONE',  ( 9.251858538542970300E-017, -1.000000000000000000, 0.0000000000000000000 ) ) ;
#315 = CARTESIAN_POINT ( 'NONE',  ( 35.27463006827380100, -8.499999999999996400, -11.99999999999999300 ) ) ;
#316 = CARTESIAN_POINT ( 'NONE',  ( 35.92136266179443300, 9.539055885161229000, -12.33397908818544600 ) ) ;
#317 = CARTESIAN_POINT ( 'NONE',  ( 35.80047549514878100, 9.344835703277633200, -12.50000000000000000 ) ) ;
#318 = CARTESIAN_POINT ( 'NONE',  ( 0.0000000000000000000, 0.0000000000000000000, -0.4999999999999935100 ) ) ;
#319 = CARTESIAN_POINT ( 'NONE',  ( 0.0000000000000000000, 8.500000000000003600, -12.50000000000000000 ) ) ;
#320 = LINE ( 'NONE', #319, #2 ) ;
#321 = LINE ( 'NONE', #315, #7 ) ;
#322 = DIRECTION ( 'NONE',  ( -0.0000000000000000000, -0.0000000000000000000, 1.000000000000000000 ) ) ;
#323 = SHAPE_DEFINITION_REPRESENTATION ( #141, #408 ) ;
#324 = DIRECTION ( 'NONE',  ( 0.0000000000000000000, 0.0000000000000000000, 1.000000000000000000 ) ) ;
#325 = DIRECTION ( 'NONE',  ( 1.000000000000000000, 0.0000000000000000000, 0.0000000000000000000 ) ) ;
#326 = CARTESIAN_POINT ( 'NONE',  ( 0.0000000000000000000, 0.0000000000000000000, 0.0000000000000000000 ) ) ;
#327 = VERTEX_POINT ( 'NONE', #334 ) ;
#328 = APPLICATION_PROTOCOL_DEFINITION ( 'international standard', 'config_control_design', 1994, #413 ) ;
#329 = CARTESIAN_POINT ( 'NONE',  ( 36.04199808033984500, 9.732871602591130200, -12.16729991482697800 ) ) ;
#330 = APPROVAL_DATE_TIME ( #338, #75 ) ;
#331 =( NAMED_UNIT ( * ) SI_UNIT ( $, .STERADIAN. ) SOLID_ANGLE_UNIT ( ) );
#332 =( NAMED_UNIT ( * ) PLANE_ANGLE_UNIT ( ) SI_UNIT ( $, .RADIAN. ) );
#333 =( LENGTH_UNIT ( ) NAMED_UNIT ( * ) SI_UNIT ( .MILLI., .METRE. ) );
#334 = CARTESIAN_POINT ( 'NONE',  ( 1.040947993870970300E-015, -8.500000000000000000, 0.0000000000000000000 ) ) ;
#335 = CARTESIAN_POINT ( 'NONE',  ( -37.50000000000000700, 0.0000000000000000000, -0.4999999999999935100 ) ) ;
#336 = PERSON_AND_ORGANIZATION ( #411, #156 ) ;
#337 = DIRECTION ( 'NONE',  ( 0.0000000000000000000, 0.0000000000000000000, -1.000000000000000000 ) ) ;
#338 = DATE_AND_TIME ( #146, #74 ) ;
#339 = DIRECTION ( 'NONE',  ( 0.0000000000000000000, 0.0000000000000000000, -1.000000000000000000 ) ) ;
#340 = DIRECTION ( 'NONE',  ( 1.000000000000000000, 0.0000000000000000000, 0.0000000000000000000 ) ) ;
#341 = CARTESIAN_POINT ( 'NONE',  ( 0.0000000000000000000, 0.0000000000000000000, 0.0000000000000000000 ) ) ;
#342 = LINE ( 'NONE', #343, #19 ) ;
#343 = CARTESIAN_POINT ( 'NONE',  ( 37.50000000000000700, -8.499999999999996400, -12.50000000000000000 ) ) ;
#344 = DIRECTION ( 'NONE',  ( 1.000000000000000000, 9.251858538542970300E-017, -0.0000000000000000000 ) ) ;
#345 = DIRECTION ( 'NONE',  ( 0.0000000000000000000, 0.0000000000000000000, -1.000000000000000000 ) ) ;
#346 = DIRECTION ( 'NONE',  ( -1.000000000000000000, 0.0000000000000000000, 0.0000000000000000000 ) ) ;
#347 = CARTESIAN_POINT ( 'NONE',  ( 36.16239187146912600, -9.926299115697846200, -0.4999999999999935100 ) ) ;
#348 = CARTESIAN_POINT ( 'NONE',  ( 35.92136266179443300, -9.539055885161221900, -0.1660209118145539200 ) ) ;
#349 = CARTESIAN_POINT ( 'NONE',  ( 35.80047549514877400, -9.344835703277624400, 0.0000000000000000000 ) ) ;
#350 = CARTESIAN_POINT ( 'NONE',  ( 36.04199808033985200, -9.732871602591123100, -0.3327000851730144100 ) ) ;
#351 = PLANE ( 'NONE',  #26 ) ;
#352 = CARTESIAN_POINT ( 'NONE',  ( 0.0000000000000000000, 8.500000000000003600, -12.50000000000000000 ) ) ;
#353 = DIRECTION ( 'NONE',  ( 0.0000000000000000000, -0.0000000000000000000, 1.000000000000000000 ) ) ;
#354 = PLANE ( 'NONE',  #31 ) ;
#355 = DIRECTION ( 'NONE',  ( -0.0000000000000000000, 1.000000000000000000, 0.0000000000000000000 ) ) ;
#356 = DIRECTION ( 'NONE',  ( 0.0000000000000000000, 0.0000000000000000000, 1.000000000000000000 ) ) ;
#357 = CARTESIAN_POINT ( 'NONE',  ( 0.0000000000000000000, 0.0000000000000000000, -12.50000000000000000 ) ) ;
#358 = CARTESIAN_POINT ( 'NONE',  ( 0.0000000000000000000, 0.0000000000000000000, 0.0000000000000000000 ) ) ;
#359 = DIRECTION ( 'NONE',  ( 0.0000000000000000000, 0.0000000000000000000, 1.000000000000000000 ) ) ;
#360 = DIRECTION ( 'NONE',  ( 1.000000000000000000, 0.0000000000000000000, -0.0000000000000000000 ) ) ;
#361 = CARTESIAN_POINT ( 'NONE',  ( 0.0000000000000000000, 0.0000000000000000000, 0.0000000000000000000 ) ) ;
#362 = DIRECTION ( 'NONE',  ( 0.0000000000000000000, 0.0000000000000000000, -1.000000000000000000 ) ) ;
#363 = DIRECTION ( 'NONE',  ( 1.000000000000000000, 0.0000000000000000000, 0.0000000000000000000 ) ) ;
#364 = CARTESIAN_POINT ( 'NONE',  ( 0.0000000000000000000, 0.0000000000000000000, 0.0000000000000000000 ) ) ;
#365 = DIRECTION ( 'NONE',  ( 0.0000000000000000000, 0.0000000000000000000, 1.000000000000000000 ) ) ;
#366 = DIRECTION ( 'NONE',  ( -1.000000000000000000, 0.0000000000000000000, 0.0000000000000000000 ) ) ;
#367 = PLANE ( 'NONE',  #24 ) ;
#368 = LINE ( 'NONE', #370, #6 ) ;
#369 = DIRECTION ( 'NONE',  ( 1.000000000000000000, 0.0000000000000000000, 0.0000000000000000000 ) ) ;
#370 = CARTESIAN_POINT ( 'NONE',  ( 35.27463006827379400, 8.500000000000003600, -0.4999999999999953400 ) ) ;
#371 = DIRECTION ( 'NONE',  ( 0.0000000000000000000, 0.0000000000000000000, 1.000000000000000000 ) ) ;
#372 = DIRECTION ( 'NONE',  ( -0.8489800208100150000, 0.5284249466721140400, 0.0000000000000000000 ) ) ;
#373 = PLANE ( 'NONE',  #37 ) ;
#374 = CARTESIAN_POINT ( 'NONE',  ( 35.27463006827379400, 8.500000000000003600, -12.50000000000000000 ) ) ;
#375 = CARTESIAN_POINT ( 'NONE',  ( 0.0000000000000000000, 0.0000000000000000000, -12.50000000000000000 ) ) ;
#376 = DIRECTION ( 'NONE',  ( -0.5284249466721140400, -0.8489800208100150000, 0.0000000000000000000 ) ) ;
#377 = DIRECTION ( 'NONE',  ( 0.0000000000000000000, 0.0000000000000000000, 1.000000000000000000 ) ) ;
#378 = PLANE ( 'NONE',  #3 ) ;
#379 = DIRECTION ( 'NONE',  ( 0.8489800208100174400, 0.5284249466721101500, -0.0000000000000000000 ) ) ;
#380 = DIRECTION ( 'NONE',  ( 1.000000000000000000, 0.0000000000000000000, -0.0000000000000000000 ) ) ;
#381 = DIRECTION ( 'NONE',  ( -0.5284249466721101500, 0.8489800208100174400, 0.0000000000000000000 ) ) ;
#382 = CARTESIAN_POINT ( 'NONE',  ( 35.27463006827380100, -8.499999999999996400, -12.50000000000000000 ) ) ;
#383 = DIRECTION ( 'NONE',  ( -0.0000000000000000000, -0.0000000000000000000, 1.000000000000000000 ) ) ;
#384 = DIRECTION ( 'NONE',  ( 1.000000000000000000, 0.0000000000000000000, 0.0000000000000000000 ) ) ;
#385 = CARTESIAN_POINT ( 'NONE',  ( 0.0000000000000000000, 0.0000000000000000000, -11.99999999999999600 ) ) ;
#386 = DIRECTION ( 'NONE',  ( -0.0000000000000000000, -0.0000000000000000000, 1.000000000000000000 ) ) ;
#387 = DIRECTION ( 'NONE',  ( 1.000000000000000000, 0.0000000000000000000, 0.0000000000000000000 ) ) ;
#388 = CARTESIAN_POINT ( 'NONE',  ( 0.0000000000000000000, 0.0000000000000000000, -12.50000000000000000 ) ) ;
#389 = CARTESIAN_POINT ( 'NONE',  ( 36.16239187146913300, -9.926299115697840800, -12.50000000000000000 ) ) ;
#390 = CARTESIAN_POINT ( 'NONE',  ( 0.0000000000000000000, 0.0000000000000000000, -12.50000000000000000 ) ) ;
#391 = LINE ( 'NONE', #389, #5 ) ;
#392 = LINE ( 'NONE', #394, #27 ) ;
#393 = DIRECTION ( 'NONE',  ( 0.0000000000000000000, 0.0000000000000000000, 1.000000000000000000 ) ) ;
#394 = CARTESIAN_POINT ( 'NONE',  ( 35.27463006827379400, 8.500000000000003600, -12.50000000000000000 ) ) ;
#395 = DIRECTION ( 'NONE',  ( -0.5284249466721140400, -0.8489800208100150000, 0.0000000000000000000 ) ) ;
#396 = DIRECTION ( 'NONE',  ( 1.000000000000000000, 0.0000000000000000000, 0.0000000000000000000 ) ) ;
#397 = CARTESIAN_POINT ( 'NONE',  ( 36.16239187146912600, 9.926299115697844400, -0.4999999999999935100 ) ) ;
#398 = DIRECTION ( 'NONE',  ( -0.0000000000000000000, -0.0000000000000000000, -1.000000000000000000 ) ) ;
#399 = CARTESIAN_POINT ( 'NONE',  ( 0.0000000000000000000, 8.500000000000003600, 0.0000000000000000000 ) ) ;
#400 = CARTESIAN_POINT ( 'NONE',  ( 35.27463006827380100, -8.499999999999996400, -12.50000000000000000 ) ) ;
#401 = CARTESIAN_POINT ( 'NONE',  ( -37.00000000000000700, 0.0000000000000000000, 0.0000000000000000000 ) ) ;
#402 = CARTESIAN_POINT ( 'NONE',  ( 35.27463006827380100, -8.499999999999992900, 0.0000000000000000000 ) ) ;
#403 = CARTESIAN_POINT ( 'NONE',  ( 36.16239187146913300, -9.926299115697840800, -11.99999999999999600 ) ) ;
#404 = CARTESIAN_POINT ( 'NONE',  ( 36.16239187146913300, 9.926299115697849700, -11.99999999999999600 ) ) ;
#405 = CARTESIAN_POINT ( 'NONE',  ( 35.80047549514878100, 9.344835703277633200, -12.50000000000000000 ) ) ;
#406 = B_SPLINE_CURVE_WITH_KNOTS ( 'NONE', 3,
 ( #292, #329, #316, #317 ),
 .UNSPECIFIED., .F., .F.,
 ( 4, 4 ),
 ( 6.254634441385502300E-018, 0.0008479877141988615300 ),
 .UNSPECIFIED. ) ;
#407 = UNCERTAINTY_MEASURE_WITH_UNIT (LENGTH_MEASURE( 1.000000000000000100E-005 ), #333, 'distance_accuracy_value', 'NONE');
#408 = ADVANCED_BREP_SHAPE_REPRESENTATION ( 'WDS-402-220', ( #142, #43 ), #139 ) ;
#409 = B_SPLINE_CURVE_WITH_KNOTS ( 'NONE', 3,
 ( #229, #243, #213, #190 ),
 .UNSPECIFIED., .F., .F.,
 ( 4, 4 ),
 ( 0.0000000000000000000, 0.0008479877141988703200 ),
 .UNSPECIFIED. ) ;
#410 = B_SPLINE_CURVE_WITH_KNOTS ( 'NONE', 3,
 ( #347, #350, #348, #349 ),
 .UNSPECIFIED., .F., .F.,
 ( 4, 4 ),
 ( 3.252606517456513300E-019, 0.0008479877141988651100 ),
 .UNSPECIFIED. ) ;
#411 = PERSON ( 'UNSPECIFIED', 'UNSPECIFIED', 'UNSPECIFIED', ('UNSPECIFIED'), ('UNSPECIFIED'), ('UNSPECIFIED') ) ;
#412 = B_SPLINE_CURVE_WITH_KNOTS ( 'NONE', 3,
 ( #291, #288, #290, #294 ),
 .UNSPECIFIED., .F., .F.,
 ( 4, 4 ),
 ( 0.0000000000000000000, 0.0008479877141988560000 ),
 .UNSPECIFIED. ) ;
#413 = APPLICATION_CONTEXT ( 'configuration controlled 3d designs of mechanical parts and assemblies' ) ;
#414 = APPLICATION_CONTEXT ( 'configuration controlled 3d designs of mechanical parts and assemblies' ) ;
ENDSEC;
END-ISO-10303-21;
