ISO-10303-21;
HEADER;
FILE_DESCRIPTION (( 'STEP AP203' ),
    '1' );
FILE_NAME ('WDS-402-209.step',
    '2012-04-05T12:49:03',
    ( 'SysAdmin' ),
    ( 'SolidWorks' ),
    'SwSTEP 2.0',
    'SolidWorks 2012',
    '' );
FILE_SCHEMA (( 'CONFIG_CONTROL_DESIGN' ));
ENDSEC;

DATA;
#1 = APPLICATION_CONTEXT ( 'configuration controlled 3d designs of mechanical parts and assemblies' ) ;
#2 = APPLICATION_CONTEXT ( 'configuration controlled 3d designs of mechanical parts and assemblies' ) ;
#3 = AXIS2_PLACEMENT_3D ( 'NONE', #114, #167, #172 ) ;
#4 = VECTOR ( 'NONE', #195, 1000.000000000000100 ) ;
#5 = COORDINATED_UNIVERSAL_TIME_OFFSET ( 5, 0, .BEHIND. ) ;
#6 = FACE_OUTER_BOUND ( 'NONE', #295, .T. ) ;
#7 = CLOSED_SHELL ( 'NONE', ( #393, #366, #365, #380, #387, #369, #402, #399, #392, #354, #359 ) ) ;
#8 = CYLINDRICAL_SURFACE ( 'NONE', #54, 22.50000000000000400 ) ;
#9 = AXIS2_PLACEMENT_3D ( 'NONE', #213, #202, #128 ) ;
#10 = VECTOR ( 'NONE', #181, 1000.000000000000100 ) ;
#11 = CALENDAR_DATE ( 2012, 5, 4 ) ;
#12 = AXIS2_PLACEMENT_3D ( 'NONE', #220, #150, #174 ) ;
#13 = FACE_OUTER_BOUND ( 'NONE', #313, .T. ) ;
#14 = VECTOR ( 'NONE', #179, 1000.000000000000000 ) ;
#15 = AXIS2_PLACEMENT_3D ( 'NONE', #170, #146, #120 ) ;
#16 = FACE_OUTER_BOUND ( 'NONE', #280, .T. ) ;
#17 = AXIS2_PLACEMENT_3D ( 'NONE', #72, #91, #210 ) ;
#18 = APPROVAL_PERSON_ORGANIZATION ( #103, #377, #153 ) ;
#19 = AXIS2_PLACEMENT_3D ( 'NONE', #178, #175, #116 ) ;
#20 = FACE_OUTER_BOUND ( 'NONE', #344, .T. ) ;
#21 = PRODUCT_DEFINITION_FORMATION_WITH_SPECIFIED_SOURCE ( 'ANY', '', #348, .NOT_KNOWN. ) ;
#22 = VECTOR ( 'NONE', #82, 1000.000000000000000 ) ;
#23 = COORDINATED_UNIVERSAL_TIME_OFFSET ( 5, 0, .BEHIND. ) ;
#24 = AXIS2_PLACEMENT_3D ( 'NONE', #248, #222, #147 ) ;
#25 = AXIS2_PLACEMENT_3D ( 'NONE', #148, #79, #191 ) ;
#26 = VECTOR ( 'NONE', #87, 1000.000000000000000 ) ;
#27 = CC_DESIGN_APPROVAL ( #413, ( #376 ) ) ;
#28 = COORDINATED_UNIVERSAL_TIME_OFFSET ( 5, 0, .BEHIND. ) ;
#29 = FACE_OUTER_BOUND ( 'NONE', #303, .T. ) ;
#30 = CYLINDRICAL_SURFACE ( 'NONE', #58, 5.159375000000001600 ) ;
#31 = CC_DESIGN_SECURITY_CLASSIFICATION ( #43, ( #21 ) ) ;
#32 = COORDINATED_UNIVERSAL_TIME_OFFSET ( 5, 0, .BEHIND. ) ;
#33 = AXIS2_PLACEMENT_3D ( 'NONE', #137, #252, #131 ) ;
#34 = FACE_OUTER_BOUND ( 'NONE', #341, .T. ) ;
#35 = CALENDAR_DATE ( 2012, 5, 4 ) ;
#36 = AXIS2_PLACEMENT_3D ( 'NONE', #183, #77, #84 ) ;
#37 = FACE_OUTER_BOUND ( 'NONE', #323, .T. ) ;
#38 = VECTOR ( 'NONE', #100, 1000.000000000000000 ) ;
#39 = CC_DESIGN_APPROVAL ( #411, ( #43 ) ) ;
#40 = AXIS2_PLACEMENT_3D ( 'NONE', #245, #188, #235 ) ;
#41 = FACE_OUTER_BOUND ( 'NONE', #329, .T. ) ;
#42 = VECTOR ( 'NONE', #142, 1000.000000000000100 ) ;
#43 = SECURITY_CLASSIFICATION ( '', '', #193 ) ;
#44 = ORGANIZATION ( 'UNSPECIFIED', 'UNSPECIFIED', '' ) ;
#45 = VECTOR ( 'NONE', #162, 1000.000000000000000 ) ;
#46 = AXIS2_PLACEMENT_3D ( 'NONE', #241, #125, #126 ) ;
#47 = CALENDAR_DATE ( 2012, 5, 4 ) ;
#48 = VECTOR ( 'NONE', #145, 1000.000000000000000 ) ;
#49 = AXIS2_PLACEMENT_3D ( 'NONE', #134, #212, #166 ) ;
#50 = FACE_OUTER_BOUND ( 'NONE', #304, .T. ) ;
#51 = VECTOR ( 'NONE', #203, 1000.000000000000100 ) ;
#52 = VECTOR ( 'NONE', #115, 1000.000000000000000 ) ;
#53 = FACE_OUTER_BOUND ( 'NONE', #300, .T. ) ;
#54 = AXIS2_PLACEMENT_3D ( 'NONE', #192, #186, #86 ) ;
#55 = VECTOR ( 'NONE', #187, 1000.000000000000000 ) ;
#56 = CALENDAR_DATE ( 2012, 5, 4 ) ;
#57 = APPROVAL_PERSON_ORGANIZATION ( #80, #413, #236 ) ;
#58 = AXIS2_PLACEMENT_3D ( 'NONE', #229, #221, #93 ) ;
#59 = APPROVAL_PERSON_ORGANIZATION ( #140, #411, #160 ) ;
#60 = CALENDAR_DATE ( 2012, 5, 4 ) ;
#61 = AXIS2_PLACEMENT_3D ( 'NONE', #246, #230, #136 ) ;
#62 = FACE_OUTER_BOUND ( 'NONE', #271, .T. ) ;
#63 = CC_DESIGN_APPROVAL ( #377, ( #21 ) ) ;
#64 = AXIS2_PLACEMENT_3D ( 'NONE', #83, #169, #165 ) ;
#65 = AXIS2_PLACEMENT_3D ( 'NONE', #129, #209, #218 ) ;
#66 = AXIS2_PLACEMENT_3D ( 'NONE', #97, #159, #85 ) ;
#67 = VECTOR ( 'NONE', #164, 1000.000000000000000 ) ;
#68 = VECTOR ( 'NONE', #226, 1000.000000000000000 ) ;
#69 = COORDINATED_UNIVERSAL_TIME_OFFSET ( 5, 0, .BEHIND. ) ;
#70 = VECTOR ( 'NONE', #139, 1000.000000000000000 ) ;
#71 = AXIS2_PLACEMENT_3D ( 'NONE', #232, #110, #81 ) ;
#72 = CARTESIAN_POINT ( 'NONE',  ( 0.0000000000000000000, 5.159375000000000700, -8.000000000000000000 ) ) ;
#73 = CARTESIAN_POINT ( 'NONE',  ( 21.52157199908110400, -6.562921505577255000, -7.499999999999996400 ) ) ;
#74 = CARTESIAN_POINT ( 'NONE',  ( 0.0000000000000000000, 5.159375000000000700, -8.000000000000000000 ) ) ;
#75 = CARTESIAN_POINT ( 'NONE',  ( -22.00000000000001100, 0.0000000000000000000, 0.0000000000000000000 ) ) ;
#76 = CARTESIAN_POINT ( 'NONE',  ( 21.16830291895885800, 5.991907169774740400, -8.000000000000000000 ) ) ;
#77 = DIRECTION ( 'NONE',  ( 0.0000000000000000000, 0.0000000000000000000, 1.000000000000000000 ) ) ;
#78 = CARTESIAN_POINT ( 'NONE',  ( 21.28644288858039200, 6.182865337587858600, -0.1656830126650697700 ) ) ;
#79 = DIRECTION ( 'NONE',  ( 0.0000000000000000000, 0.0000000000000000000, 1.000000000000000000 ) ) ;
#80 = PERSON_AND_ORGANIZATION ( #258, #44 ) ;
#81 = DIRECTION ( 'NONE',  ( 1.000000000000000000, 0.0000000000000000000, 0.0000000000000000000 ) ) ;
#82 = DIRECTION ( 'NONE',  ( 0.0000000000000000000, 0.0000000000000000000, -1.000000000000000000 ) ) ;
#83 = CARTESIAN_POINT ( 'NONE',  ( 0.0000000000000000000, 0.0000000000000000000, 0.0000000000000000000 ) ) ;
#84 = DIRECTION ( 'NONE',  ( 1.000000000000000000, 0.0000000000000000000, 0.0000000000000000000 ) ) ;
#85 = DIRECTION ( 'NONE',  ( -0.5261220467127724100, -0.8504090733069370500, 0.0000000000000000000 ) ) ;
#86 = DIRECTION ( 'NONE',  ( 1.000000000000000000, 0.0000000000000000000, 0.0000000000000000000 ) ) ;
#87 = DIRECTION ( 'NONE',  ( -0.0000000000000000000, -0.0000000000000000000, 1.000000000000000000 ) ) ;
#88 = LINE ( 'NONE', #227, #45 ) ;
#89 = CARTESIAN_POINT ( 'NONE',  ( 21.52157199908110400, -6.562921505577255000, -7.499999999999996400 ) ) ;
#90 = PERSON_AND_ORGANIZATION ( #258, #44 ) ;
#91 = DIRECTION ( 'NONE',  ( 7.709882115452478200E-017, 1.000000000000000000, 0.0000000000000000000 ) ) ;
#92 = PERSON_AND_ORGANIZATION_ROLE ( 'design_supplier' ) ;
#93 = DIRECTION ( 'NONE',  ( 1.000000000000000000, 0.0000000000000000000, 0.0000000000000000000 ) ) ;
#94 = LINE ( 'NONE', #112, #10 ) ;
#95 = CARTESIAN_POINT ( 'NONE',  ( 21.52157199908110000, 6.562921505577258500, -8.000000000000000000 ) ) ;
#96 = CARTESIAN_POINT ( 'NONE',  ( -22.50000000000000400, 0.0000000000000000000, -0.5000000000000004400 ) ) ;
#97 = CARTESIAN_POINT ( 'NONE',  ( 20.65324076491475900, 5.159374999999998900, -8.000000000000000000 ) ) ;
#98 = CARTESIAN_POINT ( 'NONE',  ( 21.40419048696030300, 6.373189287416647800, -7.667619214192701100 ) ) ;
#99 = CARTESIAN_POINT ( 'NONE',  ( 21.16830291895886500, 5.991907169774752800, 0.0000000000000000000 ) ) ;
#100 = DIRECTION ( 'NONE',  ( -1.000000000000000000, 7.709882115452478200E-017, 0.0000000000000000000 ) ) ;
#101 = CARTESIAN_POINT ( 'NONE',  ( 21.16830291895886900, -5.991907169774751000, 0.0000000000000000000 ) ) ;
#102 = PLANE ( 'NONE',  #9 ) ;
#103 = PERSON_AND_ORGANIZATION ( #258, #44 ) ;
#104 = SHAPE_DEFINITION_REPRESENTATION ( #254, #260 ) ;
#105 = CARTESIAN_POINT ( 'NONE',  ( 21.16830291895885500, -5.991907169774736800, -8.000000000000000000 ) ) ;
#106 = APPLICATION_PROTOCOL_DEFINITION ( 'international standard', 'config_control_design', 1994, #2 ) ;
#107 = LINE ( 'NONE', #144, #26 ) ;
#108 = DATE_AND_TIME ( #47, #384 ) ;
#109 = DATE_AND_TIME ( #60, #382 ) ;
#110 = DIRECTION ( 'NONE',  ( 0.0000000000000000000, 0.0000000000000000000, -1.000000000000000000 ) ) ;
#111 = CARTESIAN_POINT ( 'NONE',  ( 0.0000000000000000000, 5.159375000000000700, -8.000000000000000000 ) ) ;
#112 = CARTESIAN_POINT ( 'NONE',  ( 20.65324076491475900, 5.159374999999998900, -8.000000000000000000 ) ) ;
#113 = APPROVAL_DATE_TIME ( #251, #413 ) ;
#114 = CARTESIAN_POINT ( 'NONE',  ( 0.0000000000000000000, 0.0000000000000000000, 0.0000000000000000000 ) ) ;
#115 = DIRECTION ( 'NONE',  ( -0.0000000000000000000, -0.0000000000000000000, -1.000000000000000000 ) ) ;
#116 = DIRECTION ( 'NONE',  ( 1.000000000000000000, 0.0000000000000000000, 0.0000000000000000000 ) ) ;
#117 = APPROVAL_STATUS ( 'not_yet_approved' ) ;
#118 = PERSON_AND_ORGANIZATION_ROLE ( 'creator' ) ;
#119 = CARTESIAN_POINT ( 'NONE',  ( 21.16830291895886500, 5.991907169774752800, 0.0000000000000000000 ) ) ;
#120 = DIRECTION ( 'NONE',  ( 1.000000000000000000, 0.0000000000000000000, 0.0000000000000000000 ) ) ;
#121 = LINE ( 'NONE', #158, #4 ) ;
#122 = CARTESIAN_POINT ( 'NONE',  ( 21.40419048696031000, -6.373189287416649600, -0.3323807858072962400 ) ) ;
#123 = CARTESIAN_POINT ( 'NONE',  ( 21.52157199908110000, -6.562921505577254100, -8.000000000000000000 ) ) ;
#124 = CARTESIAN_POINT ( 'NONE',  ( 21.16830291895885800, 5.991907169774740400, -8.000000000000000000 ) ) ;
#125 = DIRECTION ( 'NONE',  ( -0.0000000000000000000, -0.0000000000000000000, 1.000000000000000000 ) ) ;
#126 = DIRECTION ( 'NONE',  ( 1.000000000000000000, 0.0000000000000000000, 0.0000000000000000000 ) ) ;
#127 = CARTESIAN_POINT ( 'NONE',  ( 20.65324076491476300, -5.159374999999999800, 0.0000000000000000000 ) ) ;
#128 = DIRECTION ( 'NONE',  ( 1.000000000000000000, 2.312964634635742500E-016, 0.0000000000000000000 ) ) ;
#129 = CARTESIAN_POINT ( 'NONE',  ( 0.0000000000000000000, 0.0000000000000000000, -8.000000000000000000 ) ) ;
#130 = LINE ( 'NONE', #95, #52 ) ;
#131 = DIRECTION ( 'NONE',  ( 1.000000000000000000, 0.0000000000000000000, 0.0000000000000000000 ) ) ;
#132 = CARTESIAN_POINT ( 'NONE',  ( -22.00000000000001100, 0.0000000000000000000, 0.0000000000000000000 ) ) ;
#133 = CARTESIAN_POINT ( 'NONE',  ( 21.52157199908110700, -6.562921505577256700, -0.5000000000000004400 ) ) ;
#134 = CARTESIAN_POINT ( 'NONE',  ( 0.0000000000000000000, 0.0000000000000000000, 0.0000000000000000000 ) ) ;
#135 = CARTESIAN_POINT ( 'NONE',  ( 21.52157199908110000, 6.562921505577258500, -0.5000000000000004400 ) ) ;
#136 = DIRECTION ( 'NONE',  ( -0.5261220467127724100, 0.8504090733069370500, 0.0000000000000000000 ) ) ;
#137 = CARTESIAN_POINT ( 'NONE',  ( 0.0000000000000000000, 0.0000000000000000000, -7.499999999999996400 ) ) ;
#138 = CARTESIAN_POINT ( 'NONE',  ( 21.52157199908110700, 6.562921505577256700, -7.499999999999996400 ) ) ;
#139 = DIRECTION ( 'NONE',  ( 0.0000000000000000000, 0.0000000000000000000, 1.000000000000000000 ) ) ;
#140 = PERSON_AND_ORGANIZATION ( #258, #44 ) ;
#141 = CARTESIAN_POINT ( 'NONE',  ( 21.16830291895885500, -5.991907169774736800, -8.000000000000000000 ) ) ;
#142 = DIRECTION ( 'NONE',  ( 0.5261220467127724100, 0.8504090733069370500, -0.0000000000000000000 ) ) ;
#143 = LINE ( 'NONE', #123, #70 ) ;
#144 = CARTESIAN_POINT ( 'NONE',  ( 6.318412079350879600E-016, -5.159375000000002500, -8.000000000000000000 ) ) ;
#145 = DIRECTION ( 'NONE',  ( -0.0000000000000000000, -0.0000000000000000000, 1.000000000000000000 ) ) ;
#146 = DIRECTION ( 'NONE',  ( 0.0000000000000000000, 0.0000000000000000000, -1.000000000000000000 ) ) ;
#147 = DIRECTION ( 'NONE',  ( -1.000000000000000000, 0.0000000000000000000, 0.0000000000000000000 ) ) ;
#148 = CARTESIAN_POINT ( 'NONE',  ( 0.0000000000000000000, 0.0000000000000000000, 0.0000000000000000000 ) ) ;
#149 =( NAMED_UNIT ( * ) PLANE_ANGLE_UNIT ( ) SI_UNIT ( $, .RADIAN. ) );
#150 = DIRECTION ( 'NONE',  ( 0.0000000000000000000, 0.0000000000000000000, 1.000000000000000000 ) ) ;
#151 = LINE ( 'NONE', #250, #14 ) ;
#152 = APPROVAL_STATUS ( 'not_yet_approved' ) ;
#153 = APPROVAL_ROLE ( '' ) ;
#154 = PERSON_AND_ORGANIZATION_ROLE ( 'design_owner' ) ;
#155 = DATE_TIME_ROLE ( 'classification_date' ) ;
#156 = PERSON_AND_ORGANIZATION ( #258, #44 ) ;
#157 = CARTESIAN_POINT ( 'NONE',  ( 20.65324076491475900, 5.159374999999998900, -0.5000000000000000000 ) ) ;
#158 = CARTESIAN_POINT ( 'NONE',  ( 20.65324076491475900, -5.159374999999997200, -8.000000000000000000 ) ) ;
#159 = DIRECTION ( 'NONE',  ( -0.8504090733069370500, 0.5261220467127724100, 0.0000000000000000000 ) ) ;
#160 = APPROVAL_ROLE ( '' ) ;
#161 = LINE ( 'NONE', #244, #22 ) ;
#162 = DIRECTION ( 'NONE',  ( 1.000000000000000000, 2.312964634635742500E-016, -0.0000000000000000000 ) ) ;
#163 = CARTESIAN_POINT ( 'NONE',  ( 20.65324076491475900, 5.159374999999998000, -8.000000000000000000 ) ) ;
#164 = DIRECTION ( 'NONE',  ( 0.0000000000000000000, 0.0000000000000000000, 1.000000000000000000 ) ) ;
#165 = DIRECTION ( 'NONE',  ( 1.000000000000000000, 0.0000000000000000000, 0.0000000000000000000 ) ) ;
#166 = DIRECTION ( 'NONE',  ( 1.000000000000000000, 0.0000000000000000000, 0.0000000000000000000 ) ) ;
#167 = DIRECTION ( 'NONE',  ( 0.0000000000000000000, 0.0000000000000000000, -1.000000000000000000 ) ) ;
#168 = CARTESIAN_POINT ( 'NONE',  ( 12.62793047287597200, 7.812513806209288700, 0.0000000000000000000 ) ) ;
#169 = DIRECTION ( 'NONE',  ( 0.0000000000000000000, 0.0000000000000000000, 1.000000000000000000 ) ) ;
#170 = CARTESIAN_POINT ( 'NONE',  ( 0.0000000000000000000, 0.0000000000000000000, -0.5000000000000004400 ) ) ;
#171 = CARTESIAN_POINT ( 'NONE',  ( 0.0000000000000000000, 5.159375000000000700, -8.000000000000000000 ) ) ;
#172 = DIRECTION ( 'NONE',  ( -1.000000000000000000, 0.0000000000000000000, 0.0000000000000000000 ) ) ;
#173 = PLANE ( 'NONE',  #17 ) ;
#174 = DIRECTION ( 'NONE',  ( 1.000000000000000000, 0.0000000000000000000, -0.0000000000000000000 ) ) ;
#175 = DIRECTION ( 'NONE',  ( 0.0000000000000000000, 0.0000000000000000000, 1.000000000000000000 ) ) ;
#176 = LINE ( 'NONE', #198, #42 ) ;
#177 = DATE_AND_TIME ( #35, #368 ) ;
#178 = CARTESIAN_POINT ( 'NONE',  ( 0.0000000000000000000, 0.0000000000000000000, -8.000000000000000000 ) ) ;
#179 = DIRECTION ( 'NONE',  ( 1.000000000000000000, 2.312964634635742500E-016, -0.0000000000000000000 ) ) ;
#180 = CARTESIAN_POINT ( 'NONE',  ( 6.318412079350879600E-016, -5.159375000000002500, -8.000000000000000000 ) ) ;
#181 = DIRECTION ( 'NONE',  ( -0.5261220467127724100, -0.8504090733069370500, 0.0000000000000000000 ) ) ;
#182 = LINE ( 'NONE', #74, #68 ) ;
#183 = CARTESIAN_POINT ( 'NONE',  ( 0.0000000000000000000, 0.0000000000000000000, 0.0000000000000000000 ) ) ;
#184 = LINE ( 'NONE', #239, #38 ) ;
#185 = PLANE ( 'NONE',  #12 ) ;
#186 = DIRECTION ( 'NONE',  ( 0.0000000000000000000, 0.0000000000000000000, 1.000000000000000000 ) ) ;
#187 = DIRECTION ( 'NONE',  ( -0.7071067811865426900, 0.0000000000000000000, -0.7071067811865524600 ) ) ;
#188 = DIRECTION ( 'NONE',  ( -0.0000000000000000000, -0.0000000000000000000, -1.000000000000000000 ) ) ;
#189 = PLANE ( 'NONE',  #66 ) ;
#190 = APPROVAL_STATUS ( 'not_yet_approved' ) ;
#191 = DIRECTION ( 'NONE',  ( 1.000000000000000000, 0.0000000000000000000, 0.0000000000000000000 ) ) ;
#192 = CARTESIAN_POINT ( 'NONE',  ( 0.0000000000000000000, 0.0000000000000000000, -8.000000000000000000 ) ) ;
#193 = SECURITY_CLASSIFICATION_LEVEL ( 'unclassified' ) ;
#194 = PERSON_AND_ORGANIZATION ( #258, #44 ) ;
#195 = DIRECTION ( 'NONE',  ( 0.5261220467127724100, -0.8504090733069370500, 0.0000000000000000000 ) ) ;
#196 = PERSON_AND_ORGANIZATION ( #258, #44 ) ;
#197 = CARTESIAN_POINT ( 'NONE',  ( 20.65324076491475900, -5.159374999999997200, -8.000000000000000000 ) ) ;
#198 = CARTESIAN_POINT ( 'NONE',  ( 12.62793047287597000, -7.812513806209288700, 0.0000000000000000000 ) ) ;
#199 = CARTESIAN_POINT ( 'NONE',  ( 21.28644288858038500, -6.182865337587848800, -7.834316987334929600 ) ) ;
#200 = PERSON_AND_ORGANIZATION_ROLE ( 'creator' ) ;
#201 = LINE ( 'NONE', #132, #55 ) ;
#202 = DIRECTION ( 'NONE',  ( 2.312964634635742500E-016, -1.000000000000000000, 0.0000000000000000000 ) ) ;
#203 = DIRECTION ( 'NONE',  ( -0.5261220467127724100, 0.8504090733069370500, 0.0000000000000000000 ) ) ;
#204 = LINE ( 'NONE', #171, #48 ) ;
#205 = CARTESIAN_POINT ( 'NONE',  ( 21.28644288858038900, -6.182865337587860400, -0.1656830126650683500 ) ) ;
#206 = CARTESIAN_POINT ( 'NONE',  ( 20.65324076491475900, 5.159374999999999800, 0.0000000000000000000 ) ) ;
#207 = APPROVAL_DATE_TIME ( #109, #377 ) ;
#208 = MECHANICAL_CONTEXT ( 'NONE', #2, 'mechanical' ) ;
#209 = DIRECTION ( 'NONE',  ( 0.0000000000000000000, 0.0000000000000000000, 1.000000000000000000 ) ) ;
#210 = DIRECTION ( 'NONE',  ( -1.000000000000000000, 7.709882115452478200E-017, 0.0000000000000000000 ) ) ;
#211 = PLANE ( 'NONE',  #61 ) ;
#212 = DIRECTION ( 'NONE',  ( 0.0000000000000000000, 0.0000000000000000000, 1.000000000000000000 ) ) ;
#213 = CARTESIAN_POINT ( 'NONE',  ( 22.50000000000000700, -5.159374999999997200, -8.000000000000000000 ) ) ;
#214 =( NAMED_UNIT ( * ) SI_UNIT ( $, .STERADIAN. ) SOLID_ANGLE_UNIT ( ) );
#215 = PERSON_AND_ORGANIZATION_ROLE ( 'classification_officer' ) ;
#216 = PLANE ( 'NONE',  #65 ) ;
#217 = CARTESIAN_POINT ( 'NONE',  ( 21.52157199908110700, 6.562921505577256700, -7.499999999999996400 ) ) ;
#218 = DIRECTION ( 'NONE',  ( 1.000000000000000000, 0.0000000000000000000, -0.0000000000000000000 ) ) ;
#219 = CARTESIAN_POINT ( 'NONE',  ( 21.40419048696030700, 6.373189287416652200, -0.3323807858072973500 ) ) ;
#220 = CARTESIAN_POINT ( 'NONE',  ( 0.0000000000000000000, 0.0000000000000000000, 0.0000000000000000000 ) ) ;
#221 = DIRECTION ( 'NONE',  ( -0.0000000000000000000, -0.0000000000000000000, 1.000000000000000000 ) ) ;
#222 = DIRECTION ( 'NONE',  ( 0.0000000000000000000, 0.0000000000000000000, -1.000000000000000000 ) ) ;
#223 = LINE ( 'NONE', #168, #51 ) ;
#224 = LINE ( 'NONE', #157, #67 ) ;
#225 = CARTESIAN_POINT ( 'NONE',  ( 21.28644288858038200, 6.182865337587852400, -7.834316987334929600 ) ) ;
#226 = DIRECTION ( 'NONE',  ( -1.000000000000000000, 7.709882115452476900E-017, -0.0000000000000000000 ) ) ;
#227 = CARTESIAN_POINT ( 'NONE',  ( 22.50000000000000700, -5.159374999999997200, -8.000000000000000000 ) ) ;
#228 = DATE_AND_TIME ( #56, #367 ) ;
#229 = CARTESIAN_POINT ( 'NONE',  ( 0.0000000000000000000, 0.0000000000000000000, -8.000000000000000000 ) ) ;
#230 = DIRECTION ( 'NONE',  ( 0.8504090733069370500, 0.5261220467127724100, -0.0000000000000000000 ) ) ;
#231 = CARTESIAN_POINT ( 'NONE',  ( 0.0000000000000000000, 5.159375000000000700, 0.0000000000000000000 ) ) ;
#232 = CARTESIAN_POINT ( 'NONE',  ( 0.0000000000000000000, 0.0000000000000000000, -0.5000000000000004400 ) ) ;
#233 = DATE_TIME_ROLE ( 'creation_date' ) ;
#234 = CARTESIAN_POINT ( 'NONE',  ( 21.16830291895886900, -5.991907169774751000, 0.0000000000000000000 ) ) ;
#235 = DIRECTION ( 'NONE',  ( 1.000000000000000000, 0.0000000000000000000, 0.0000000000000000000 ) ) ;
#236 = APPROVAL_ROLE ( '' ) ;
#237 = CARTESIAN_POINT ( 'NONE',  ( 21.52157199908110000, 6.562921505577258500, -0.5000000000000004400 ) ) ;
#238 = CARTESIAN_POINT ( 'NONE',  ( 21.40419048696030700, -6.373189287416646000, -7.667619214192700200 ) ) ;
#239 = CARTESIAN_POINT ( 'NONE',  ( 3.977817303941263600E-016, 5.159375000000000700, 0.0000000000000000000 ) ) ;
#240 = CARTESIAN_POINT ( 'NONE',  ( 21.52157199908110700, -6.562921505577256700, -0.5000000000000004400 ) ) ;
#241 = CARTESIAN_POINT ( 'NONE',  ( 0.0000000000000000000, 0.0000000000000000000, -7.499999999999996400 ) ) ;
#242 = APPLICATION_PROTOCOL_DEFINITION ( 'international standard', 'config_control_design', 1994, #1 ) ;
#243 = PERSON_AND_ORGANIZATION ( #258, #44 ) ;
#244 = CARTESIAN_POINT ( 'NONE',  ( 20.65324076491475900, -5.159374999999997200, -7.499999999999996400 ) ) ;
#245 = CARTESIAN_POINT ( 'NONE',  ( 0.0000000000000000000, 0.0000000000000000000, -8.000000000000000000 ) ) ;
#246 = CARTESIAN_POINT ( 'NONE',  ( 20.65324076491475900, -5.159374999999997200, -8.000000000000000000 ) ) ;
#247 =( LENGTH_UNIT ( ) NAMED_UNIT ( * ) SI_UNIT ( .MILLI., .METRE. ) );
#248 = CARTESIAN_POINT ( 'NONE',  ( 0.0000000000000000000, 0.0000000000000000000, 0.0000000000000000000 ) ) ;
#249 = APPROVAL_DATE_TIME ( #177, #411 ) ;
#250 = CARTESIAN_POINT ( 'NONE',  ( 22.50000000000000700, -5.159374999999997200, 0.0000000000000000000 ) ) ;
#251 = DATE_AND_TIME ( #11, #381 ) ;
#252 = DIRECTION ( 'NONE',  ( -0.0000000000000000000, -0.0000000000000000000, 1.000000000000000000 ) ) ;
#253 = MANIFOLD_SOLID_BREP ( 'Chamfer2', #7 ) ;
#254 = PRODUCT_DEFINITION_SHAPE ( 'NONE', 'NONE',  #376 ) ;
#255 = DESIGN_CONTEXT ( 'detailed design', #1, 'design' ) ;
#256 = B_SPLINE_CURVE_WITH_KNOTS ( 'NONE', 3,
 ( #133, #122, #205, #234 ),
 .UNSPECIFIED., .F., .F.,
 ( 4, 4 ),
 ( 2.377841001298279200E-018, 0.0008371716757406362400 ),
 .UNSPECIFIED. ) ;
#257 = B_SPLINE_CURVE_WITH_KNOTS ( 'NONE', 3,
 ( #217, #98, #225, #76 ),
 .UNSPECIFIED., .F., .F.,
 ( 4, 4 ),
 ( 1.226634733346699300E-018, 0.0008371716757406509900 ),
 .UNSPECIFIED. ) ;
#258 = PERSON ( 'UNSPECIFIED', 'UNSPECIFIED', 'UNSPECIFIED', ('UNSPECIFIED'), ('UNSPECIFIED'), ('UNSPECIFIED') ) ;
#259 = B_SPLINE_CURVE_WITH_KNOTS ( 'NONE', 3,
 ( #119, #78, #219, #237 ),
 .UNSPECIFIED., .F., .F.,
 ( 4, 4 ),
 ( 0.0000000000000000000, 0.0008371716757406376500 ),
 .UNSPECIFIED. ) ;
#260 = ADVANCED_BREP_SHAPE_REPRESENTATION ( 'WDS-402-209', ( #253, #36 ), #263 ) ;
#261 = B_SPLINE_CURVE_WITH_KNOTS ( 'NONE', 3,
 ( #105, #199, #238, #73 ),
 .UNSPECIFIED., .F., .F.,
 ( 4, 4 ),
 ( 0.0000000000000000000, 0.0008371716757406537000 ),
 .UNSPECIFIED. ) ;
#262 = UNCERTAINTY_MEASURE_WITH_UNIT (LENGTH_MEASURE( 1.000000000000000100E-005 ), #247, 'distance_accuracy_value', 'NONE');
#263 =( GEOMETRIC_REPRESENTATION_CONTEXT ( 3 ) GLOBAL_UNCERTAINTY_ASSIGNED_CONTEXT ( ( #262 ) ) GLOBAL_UNIT_ASSIGNED_CONTEXT ( ( #247, #149, #214 ) ) REPRESENTATION_CONTEXT ( 'NONE', 'WORKASPACE' ) );
#264 = ORIENTED_EDGE ( 'NONE', *, *, #405, .T. ) ;
#265 = VERTEX_POINT ( 'NONE', #274 ) ;
#266 = ORIENTED_EDGE ( 'NONE', *, *, #386, .F. ) ;
#267 = ORIENTED_EDGE ( 'NONE', *, *, #363, .F. ) ;
#268 = ORIENTED_EDGE ( 'NONE', *, *, #397, .T. ) ;
#269 = ORIENTED_EDGE ( 'NONE', *, *, #379, .F. ) ;
#270 = ORIENTED_EDGE ( 'NONE', *, *, #388, .T. ) ;
#271 = EDGE_LOOP ( 'NONE', ( #301, #277, #292, #332 ) ) ;
#272 = VERTEX_POINT ( 'NONE', #96 ) ;
#273 = VERTEX_POINT ( 'NONE', #111 ) ;
#274 = CARTESIAN_POINT ( 'NONE',  ( 6.318417564915830400E-016, -5.159375000000002500, 0.0000000000000000000 ) ) ;
#275 = ORIENTED_EDGE ( 'NONE', *, *, #362, .F. ) ;
#276 = ORIENTED_EDGE ( 'NONE', *, *, #355, .T. ) ;
#277 = ORIENTED_EDGE ( 'NONE', *, *, #403, .T. ) ;
#278 = ORIENTED_EDGE ( 'NONE', *, *, #355, .F. ) ;
#279 = ORIENTED_EDGE ( 'NONE', *, *, #385, .F. ) ;
#280 = EDGE_LOOP ( 'NONE', ( #282, #293, #324, #333 ) ) ;
#281 = ORIENTED_EDGE ( 'NONE', *, *, #406, .T. ) ;
#282 = ORIENTED_EDGE ( 'NONE', *, *, #375, .F. ) ;
#283 = ORIENTED_EDGE ( 'NONE', *, *, #360, .F. ) ;
#284 = VERTEX_POINT ( 'NONE', #101 ) ;
#285 = ORIENTED_EDGE ( 'NONE', *, *, #358, .F. ) ;
#286 = ORIENTED_EDGE ( 'NONE', *, *, #374, .T. ) ;
#287 = ORIENTED_EDGE ( 'NONE', *, *, #357, .T. ) ;
#288 = ORIENTED_EDGE ( 'NONE', *, *, #407, .F. ) ;
#289 = ORIENTED_EDGE ( 'NONE', *, *, #394, .T. ) ;
#290 = VERTEX_POINT ( 'NONE', #197 ) ;
#291 = ORIENTED_EDGE ( 'NONE', *, *, #360, .T. ) ;
#292 = ORIENTED_EDGE ( 'NONE', *, *, #405, .F. ) ;
#293 = ORIENTED_EDGE ( 'NONE', *, *, #363, .T. ) ;
#294 = VERTEX_POINT ( 'NONE', #89 ) ;
#295 = EDGE_LOOP ( 'NONE', ( #276, #319, #298, #268, #264, #270 ) ) ;
#296 = ORIENTED_EDGE ( 'NONE', *, *, #371, .F. ) ;
#297 = VERTEX_POINT ( 'NONE', #206 ) ;
#298 = ORIENTED_EDGE ( 'NONE', *, *, #407, .T. ) ;
#299 = ORIENTED_EDGE ( 'NONE', *, *, #394, .F. ) ;
#300 = EDGE_LOOP ( 'NONE', ( #266, #337, #306, #308, #336, #275 ) ) ;
#301 = ORIENTED_EDGE ( 'NONE', *, *, #385, .T. ) ;
#302 = ORIENTED_EDGE ( 'NONE', *, *, #361, .F. ) ;
#303 = EDGE_LOOP ( 'NONE', ( #322, #283, #285, #317, #316, #340 ) ) ;
#304 = EDGE_LOOP ( 'NONE', ( #320, #339, #346, #289 ) ) ;
#305 = VERTEX_POINT ( 'NONE', #135 ) ;
#306 = ORIENTED_EDGE ( 'NONE', *, *, #410, .F. ) ;
#307 = ORIENTED_EDGE ( 'NONE', *, *, #404, .F. ) ;
#308 = ORIENTED_EDGE ( 'NONE', *, *, #388, .F. ) ;
#309 = VERTEX_POINT ( 'NONE', #127 ) ;
#310 = VERTEX_POINT ( 'NONE', #180 ) ;
#311 = VERTEX_POINT ( 'NONE', #75 ) ;
#312 = ORIENTED_EDGE ( 'NONE', *, *, #408, .T. ) ;
#313 = EDGE_LOOP ( 'NONE', ( #287, #325, #291, #347, #345 ) ) ;
#314 = VERTEX_POINT ( 'NONE', #231 ) ;
#315 = ORIENTED_EDGE ( 'NONE', *, *, #379, .T. ) ;
#316 = ORIENTED_EDGE ( 'NONE', *, *, #408, .F. ) ;
#317 = ORIENTED_EDGE ( 'NONE', *, *, #352, .F. ) ;
#318 = VERTEX_POINT ( 'NONE', #141 ) ;
#319 = ORIENTED_EDGE ( 'NONE', *, *, #383, .T. ) ;
#320 = ORIENTED_EDGE ( 'NONE', *, *, #361, .T. ) ;
#321 = VERTEX_POINT ( 'NONE', #240 ) ;
#322 = ORIENTED_EDGE ( 'NONE', *, *, #374, .F. ) ;
#323 = EDGE_LOOP ( 'NONE', ( #307, #286, #278, #343 ) ) ;
#324 = ORIENTED_EDGE ( 'NONE', *, *, #357, .F. ) ;
#325 = ORIENTED_EDGE ( 'NONE', *, *, #371, .T. ) ;
#326 = VERTEX_POINT ( 'NONE', #99 ) ;
#327 = VERTEX_POINT ( 'NONE', #124 ) ;
#328 = ORIENTED_EDGE ( 'NONE', *, *, #375, .T. ) ;
#329 = EDGE_LOOP ( 'NONE', ( #269, #342, #281, #328, #334, #279, #302 ) ) ;
#330 = VERTEX_POINT ( 'NONE', #163 ) ;
#331 = VERTEX_POINT ( 'NONE', #138 ) ;
#332 = ORIENTED_EDGE ( 'NONE', *, *, #409, .T. ) ;
#333 = ORIENTED_EDGE ( 'NONE', *, *, #386, .T. ) ;
#334 = ORIENTED_EDGE ( 'NONE', *, *, #362, .T. ) ;
#335 = ORIENTED_EDGE ( 'NONE', *, *, #406, .F. ) ;
#336 = ORIENTED_EDGE ( 'NONE', *, *, #403, .F. ) ;
#337 = ORIENTED_EDGE ( 'NONE', *, *, #372, .F. ) ;
#338 = ORIENTED_EDGE ( 'NONE', *, *, #358, .T. ) ;
#339 = ORIENTED_EDGE ( 'NONE', *, *, #409, .F. ) ;
#340 = ORIENTED_EDGE ( 'NONE', *, *, #383, .F. ) ;
#341 = EDGE_LOOP ( 'NONE', ( #288, #312, #315, #299 ) ) ;
#342 = ORIENTED_EDGE ( 'NONE', *, *, #352, .T. ) ;
#343 = ORIENTED_EDGE ( 'NONE', *, *, #410, .T. ) ;
#344 = EDGE_LOOP ( 'NONE', ( #267, #335, #338, #296 ) ) ;
#345 = ORIENTED_EDGE ( 'NONE', *, *, #372, .T. ) ;
#346 = ORIENTED_EDGE ( 'NONE', *, *, #397, .F. ) ;
#347 = ORIENTED_EDGE ( 'NONE', *, *, #404, .T. ) ;
#348 = PRODUCT ( 'WDS-402-209', 'WDS-402-209', '', ( #208 ) ) ;
#349 = CIRCLE ( 'NONE', #15, 22.50000000000000400 ) ;
#350 = PRODUCT_RELATED_PRODUCT_CATEGORY ( 'detail', '', ( #348 ) ) ;
#351 = CC_DESIGN_PERSON_AND_ORGANIZATION_ASSIGNMENT ( #194, #215, ( #43 ) ) ;
#352 = EDGE_CURVE ( 'NONE', #297, #326, #176, .T. ) ;
#353 = CONICAL_SURFACE ( 'NONE', #46, 22.50000000000000400, 0.7853981633974517200 ) ;
#354 = ADVANCED_FACE ( 'NONE', ( #29 ), #189, .F. ) ;
#355 = EDGE_CURVE ( 'NONE', #318, #327, #356, .T. ) ;
#356 = CIRCLE ( 'NONE', #40, 21.99999999999999600 ) ;
#357 = EDGE_CURVE ( 'NONE', #321, #272, #391, .T. ) ;
#358 = EDGE_CURVE ( 'NONE', #326, #305, #259, .T. ) ;
#359 = ADVANCED_FACE ( 'NONE', ( #53 ), #211, .T. ) ;
#360 = EDGE_CURVE ( 'NONE', #305, #331, #130, .T. ) ;
#361 = EDGE_CURVE ( 'NONE', #314, #265, #378, .T. ) ;
#362 = EDGE_CURVE ( 'NONE', #284, #309, #223, .T. ) ;
#363 = EDGE_CURVE ( 'NONE', #311, #272, #201, .T. ) ;
#364 = CONICAL_SURFACE ( 'NONE', #24, 22.00000000000001100, 0.7853981633974414000 ) ;
#365 = ADVANCED_FACE ( 'NONE', ( #6 ), #216, .F. ) ;
#366 = ADVANCED_FACE ( 'NONE', ( #13 ), #8, .T. ) ;
#367 = LOCAL_TIME ( 8, 49, 3.000000000000000000, #28 ) ;
#368 = LOCAL_TIME ( 8, 49, 3.000000000000000000, #5 ) ;
#369 = ADVANCED_FACE ( 'NONE', ( #34 ), #173, .F. ) ;
#370 = CC_DESIGN_PERSON_AND_ORGANIZATION_ASSIGNMENT ( #90, #200, ( #376 ) ) ;
#371 = EDGE_CURVE ( 'NONE', #272, #305, #349, .T. ) ;
#372 = EDGE_CURVE ( 'NONE', #294, #321, #143, .T. ) ;
#373 = CIRCLE ( 'NONE', #19, 5.159375000000001600 ) ;
#374 = EDGE_CURVE ( 'NONE', #331, #327, #257, .T. ) ;
#375 = EDGE_CURVE ( 'NONE', #311, #284, #398, .T. ) ;
#376 = PRODUCT_DEFINITION ( 'UNKNOWN', '', #21, #255 ) ;
#377 = APPROVAL ( #190, 'UNSPECIFIED' ) ;
#378 = CIRCLE ( 'NONE', #49, 5.159375000000001600 ) ;
#379 = EDGE_CURVE ( 'NONE', #297, #314, #184, .T. ) ;
#380 = ADVANCED_FACE ( 'NONE', ( #41 ), #185, .T. ) ;
#381 = LOCAL_TIME ( 8, 49, 3.000000000000000000, #32 ) ;
#382 = LOCAL_TIME ( 8, 49, 3.000000000000000000, #23 ) ;
#383 = EDGE_CURVE ( 'NONE', #327, #330, #94, .T. ) ;
#384 = LOCAL_TIME ( 8, 49, 3.000000000000000000, #69 ) ;
#385 = EDGE_CURVE ( 'NONE', #265, #309, #151, .T. ) ;
#386 = EDGE_CURVE ( 'NONE', #321, #284, #256, .T. ) ;
#387 = ADVANCED_FACE ( 'NONE', ( #50 ), #30, .F. ) ;
#388 = EDGE_CURVE ( 'NONE', #290, #318, #121, .T. ) ;
#389 = CONICAL_SURFACE ( 'NONE', #3, 22.00000000000001100, 0.7853981633974414000 ) ;
#390 = CC_DESIGN_PERSON_AND_ORGANIZATION_ASSIGNMENT ( #156, #92, ( #21 ) ) ;
#391 = CIRCLE ( 'NONE', #71, 22.50000000000000400 ) ;
#392 = ADVANCED_FACE ( 'NONE', ( #20 ), #389, .T. ) ;
#393 = ADVANCED_FACE ( 'NONE', ( #16 ), #364, .T. ) ;
#394 = EDGE_CURVE ( 'NONE', #273, #314, #204, .T. ) ;
#395 = CC_DESIGN_PERSON_AND_ORGANIZATION_ASSIGNMENT ( #196, #118, ( #21 ) ) ;
#396 = CIRCLE ( 'NONE', #64, 22.00000000000001100 ) ;
#397 = EDGE_CURVE ( 'NONE', #273, #310, #373, .T. ) ;
#398 = CIRCLE ( 'NONE', #25, 22.00000000000001100 ) ;
#399 = ADVANCED_FACE ( 'NONE', ( #37 ), #353, .T. ) ;
#400 = CC_DESIGN_DATE_AND_TIME_ASSIGNMENT ( #108, #155, ( #43 ) ) ;
#401 = CC_DESIGN_DATE_AND_TIME_ASSIGNMENT ( #228, #233, ( #376 ) ) ;
#402 = ADVANCED_FACE ( 'NONE', ( #62 ), #102, .F. ) ;
#403 = EDGE_CURVE ( 'NONE', #309, #290, #161, .T. ) ;
#404 = EDGE_CURVE ( 'NONE', #331, #294, #414, .T. ) ;
#405 = EDGE_CURVE ( 'NONE', #310, #290, #88, .T. ) ;
#406 = EDGE_CURVE ( 'NONE', #326, #311, #396, .T. ) ;
#407 = EDGE_CURVE ( 'NONE', #330, #273, #182, .T. ) ;
#408 = EDGE_CURVE ( 'NONE', #330, #297, #224, .T. ) ;
#409 = EDGE_CURVE ( 'NONE', #310, #265, #107, .T. ) ;
#410 = EDGE_CURVE ( 'NONE', #318, #294, #261, .T. ) ;
#411 = APPROVAL ( #117, 'UNSPECIFIED' ) ;
#412 = CC_DESIGN_PERSON_AND_ORGANIZATION_ASSIGNMENT ( #243, #154, ( #348 ) ) ;
#413 = APPROVAL ( #152, 'UNSPECIFIED' ) ;
#414 = CIRCLE ( 'NONE', #33, 22.50000000000000400 ) ;
ENDSEC;
END-ISO-10303-21;
