ISO-10303-21;
HEADER;
FILE_DESCRIPTION (( 'STEP AP203' ),
    '1' );
FILE_NAME ('WDS-402-203.step',
    '2012-04-05T12:47:10',
    ( 'SysAdmin' ),
    ( 'SolidWorks' ),
    'SwSTEP 2.0',
    'SolidWorks 2012',
    '' );
FILE_SCHEMA (( 'CONFIG_CONTROL_DESIGN' ));
ENDSEC;

DATA;
#1 = PRODUCT ( 'WDS-402-203', 'WDS-402-203', '', ( #160 ) ) ;
#2 = CALENDAR_DATE ( 2012, 5, 4 ) ;
#3 = FACE_OUTER_BOUND ( 'NONE', #124, .T. ) ;
#4 = FACE_OUTER_BOUND ( 'NONE', #104, .T. ) ;
#5 = VECTOR ( 'NONE', #186, 1000.000000000000000 ) ;
#6 = AXIS2_PLACEMENT_3D ( 'NONE', #225, #189, #283 ) ;
#7 = FACE_OUTER_BOUND ( 'NONE', #139, .T. ) ;
#8 = AXIS2_PLACEMENT_3D ( 'NONE', #192, #281, #269 ) ;
#9 = CLOSED_SHELL ( 'NONE', ( #351, #384, #399, #374, #398, #349, #357, #350, #390, #381, #356 ) ) ;
#10 = AXIS2_PLACEMENT_3D ( 'NONE', #213, #226, #218 ) ;
#11 = AXIS2_PLACEMENT_3D ( 'NONE', #220, #317, #285 ) ;
#12 = VECTOR ( 'NONE', #324, 1000.000000000000000 ) ;
#13 = AXIS2_PLACEMENT_3D ( 'NONE', #273, #322, #230 ) ;
#14 = VECTOR ( 'NONE', #321, 1000.000000000000100 ) ;
#15 = AXIS2_PLACEMENT_3D ( 'NONE', #315, #236, #209 ) ;
#16 = AXIS2_PLACEMENT_3D ( 'NONE', #228, #169, #282 ) ;
#17 = CALENDAR_DATE ( 2012, 5, 4 ) ;
#18 = AXIS2_PLACEMENT_3D ( 'NONE', #323, #195, #239 ) ;
#19 = VECTOR ( 'NONE', #149, 1000.000000000000000 ) ;
#20 = APPROVAL_PERSON_ORGANIZATION ( #214, #413, #241 ) ;
#21 = VECTOR ( 'NONE', #232, 1000.000000000000000 ) ;
#22 = PRODUCT_DEFINITION_FORMATION_WITH_SPECIFIED_SOURCE ( 'ANY', '', #1, .NOT_KNOWN. ) ;
#23 = COORDINATED_UNIVERSAL_TIME_OFFSET ( 5, 0, .BEHIND. ) ;
#24 = VECTOR ( 'NONE', #182, 1000.000000000000000 ) ;
#25 = AXIS2_PLACEMENT_3D ( 'NONE', #295, #292, #215 ) ;
#26 = COORDINATED_UNIVERSAL_TIME_OFFSET ( 5, 0, .BEHIND. ) ;
#27 = VECTOR ( 'NONE', #263, 1000.000000000000000 ) ;
#28 = FACE_OUTER_BOUND ( 'NONE', #106, .T. ) ;
#29 = FACE_OUTER_BOUND ( 'NONE', #130, .T. ) ;
#30 = FACE_OUTER_BOUND ( 'NONE', #113, .T. ) ;
#31 = AXIS2_PLACEMENT_3D ( 'NONE', #161, #314, #162 ) ;
#32 = COORDINATED_UNIVERSAL_TIME_OFFSET ( 5, 0, .BEHIND. ) ;
#33 = VECTOR ( 'NONE', #300, 1000.000000000000000 ) ;
#34 = ORGANIZATION ( 'UNSPECIFIED', 'UNSPECIFIED', '' ) ;
#35 = FACE_OUTER_BOUND ( 'NONE', #84, .T. ) ;
#36 = CC_DESIGN_APPROVAL ( #403, ( #68 ) ) ;
#37 = VECTOR ( 'NONE', #206, 1000.000000000000000 ) ;
#38 = VECTOR ( 'NONE', #287, 1000.000000000000000 ) ;
#39 = CYLINDRICAL_SURFACE ( 'NONE', #10, 16.00000000000000000 ) ;
#40 = CC_DESIGN_SECURITY_CLASSIFICATION ( #68, ( #22 ) ) ;
#41 = COORDINATED_UNIVERSAL_TIME_OFFSET ( 5, 0, .BEHIND. ) ;
#42 = CALENDAR_DATE ( 2012, 5, 4 ) ;
#43 = CYLINDRICAL_SURFACE ( 'NONE', #58, 3.500000000000002200 ) ;
#44 = AXIS2_PLACEMENT_3D ( 'NONE', #152, #185, #227 ) ;
#45 = VECTOR ( 'NONE', #193, 1000.000000000000000 ) ;
#46 = AXIS2_PLACEMENT_3D ( 'NONE', #289, #175, #202 ) ;
#47 = APPROVAL_PERSON_ORGANIZATION ( #253, #403, #335 ) ;
#48 = FACE_OUTER_BOUND ( 'NONE', #103, .T. ) ;
#49 = CC_DESIGN_APPROVAL ( #413, ( #395 ) ) ;
#50 = COORDINATED_UNIVERSAL_TIME_OFFSET ( 5, 0, .BEHIND. ) ;
#51 = APPROVAL_PERSON_ORGANIZATION ( #238, #387, #337 ) ;
#52 = VECTOR ( 'NONE', #272, 1000.000000000000000 ) ;
#53 = FACE_OUTER_BOUND ( 'NONE', #83, .T. ) ;
#54 = VECTOR ( 'NONE', #278, 1000.000000000000000 ) ;
#55 = FACE_OUTER_BOUND ( 'NONE', #105, .T. ) ;
#56 = CALENDAR_DATE ( 2012, 5, 4 ) ;
#57 = CC_DESIGN_APPROVAL ( #387, ( #22 ) ) ;
#58 = AXIS2_PLACEMENT_3D ( 'NONE', #150, #290, #298 ) ;
#59 = CALENDAR_DATE ( 2012, 5, 4 ) ;
#60 = AXIS2_PLACEMENT_3D ( 'NONE', #187, #167, #260 ) ;
#61 = AXIS2_PLACEMENT_3D ( 'NONE', #191, #198, #243 ) ;
#62 = AXIS2_PLACEMENT_3D ( 'NONE', #259, #331, #297 ) ;
#63 = VECTOR ( 'NONE', #336, 1000.000000000000100 ) ;
#64 = AXIS2_PLACEMENT_3D ( 'NONE', #276, #229, #146 ) ;
#65 = AXIS2_PLACEMENT_3D ( 'NONE', #247, #153, #196 ) ;
#66 = AXIS2_PLACEMENT_3D ( 'NONE', #268, #174, #180 ) ;
#67 = FACE_OUTER_BOUND ( 'NONE', #77, .T. ) ;
#68 = SECURITY_CLASSIFICATION ( '', '', #207 ) ;
#69 = AXIS2_PLACEMENT_3D ( 'NONE', #312, #194, #277 ) ;
#70 = VECTOR ( 'NONE', #257, 1000.000000000000000 ) ;
#71 = APPLICATION_CONTEXT ( 'configuration controlled 3d designs of mechanical parts and assemblies' ) ;
#72 = APPLICATION_CONTEXT ( 'configuration controlled 3d designs of mechanical parts and assemblies' ) ;
#73 = ORIENTED_EDGE ( 'NONE', *, *, #396, .F. ) ;
#74 = ORIENTED_EDGE ( 'NONE', *, *, #353, .F. ) ;
#75 = VERTEX_POINT ( 'NONE', #319 ) ;
#76 = ORIENTED_EDGE ( 'NONE', *, *, #405, .T. ) ;
#77 = EDGE_LOOP ( 'NONE', ( #136, #92, #112, #115, #73, #122 ) ) ;
#78 = VERTEX_POINT ( 'NONE', #330 ) ;
#79 = VERTEX_POINT ( 'NONE', #302 ) ;
#80 = VERTEX_POINT ( 'NONE', #311 ) ;
#81 = VERTEX_POINT ( 'NONE', #294 ) ;
#82 = VERTEX_POINT ( 'NONE', #216 ) ;
#83 = EDGE_LOOP ( 'NONE', ( #140, #109, #128, #95, #90, #93 ) ) ;
#84 = EDGE_LOOP ( 'NONE', ( #205, #126, #132, #114 ) ) ;
#85 = VERTEX_POINT ( 'NONE', #270 ) ;
#86 = VERTEX_POINT ( 'NONE', #306 ) ;
#87 = VERTEX_POINT ( 'NONE', #164 ) ;
#88 = VERTEX_POINT ( 'NONE', #251 ) ;
#89 = ORIENTED_EDGE ( 'NONE', *, *, #366, .T. ) ;
#90 = ORIENTED_EDGE ( 'NONE', *, *, #391, .F. ) ;
#91 = VERTEX_POINT ( 'NONE', #231 ) ;
#92 = ORIENTED_EDGE ( 'NONE', *, *, #373, .F. ) ;
#93 = ORIENTED_EDGE ( 'NONE', *, *, #406, .F. ) ;
#94 = ORIENTED_EDGE ( 'NONE', *, *, #353, .T. ) ;
#95 = ORIENTED_EDGE ( 'NONE', *, *, #404, .F. ) ;
#96 = ORIENTED_EDGE ( 'NONE', *, *, #407, .T. ) ;
#97 = ORIENTED_EDGE ( 'NONE', *, *, #385, .F. ) ;
#98 = ORIENTED_EDGE ( 'NONE', *, *, #352, .T. ) ;
#99 = ORIENTED_EDGE ( 'NONE', *, *, #360, .T. ) ;
#100 = ORIENTED_EDGE ( 'NONE', *, *, #379, .F. ) ;
#101 = ORIENTED_EDGE ( 'NONE', *, *, #378, .T. ) ;
#102 = ORIENTED_EDGE ( 'NONE', *, *, #375, .T. ) ;
#103 = EDGE_LOOP ( 'NONE', ( #102, #288, #183, #119, #217, #179 ) ) ;
#104 = EDGE_LOOP ( 'NONE', ( #74, #137, #143, #101 ) ) ;
#105 = EDGE_LOOP ( 'NONE', ( #76, #134, #135, #98 ) ) ;
#106 = EDGE_LOOP ( 'NONE', ( #156, #320, #199, #118 ) ) ;
#107 = VERTEX_POINT ( 'NONE', #286 ) ;
#108 = VERTEX_POINT ( 'NONE', #176 ) ;
#109 = ORIENTED_EDGE ( 'NONE', *, *, #397, .F. ) ;
#110 = ORIENTED_EDGE ( 'NONE', *, *, #386, .T. ) ;
#111 = VERTEX_POINT ( 'NONE', #197 ) ;
#112 = ORIENTED_EDGE ( 'NONE', *, *, #409, .F. ) ;
#113 = EDGE_LOOP ( 'NONE', ( #127, #116, #158, #117 ) ) ;
#114 = ORIENTED_EDGE ( 'NONE', *, *, #358, .F. ) ;
#115 = ORIENTED_EDGE ( 'NONE', *, *, #360, .F. ) ;
#116 = ORIENTED_EDGE ( 'NONE', *, *, #391, .T. ) ;
#117 = ORIENTED_EDGE ( 'NONE', *, *, #414, .T. ) ;
#118 = ORIENTED_EDGE ( 'NONE', *, *, #369, .T. ) ;
#119 = ORIENTED_EDGE ( 'NONE', *, *, #368, .T. ) ;
#120 = ORIENTED_EDGE ( 'NONE', *, *, #367, .T. ) ;
#121 = ORIENTED_EDGE ( 'NONE', *, *, #405, .F. ) ;
#122 = ORIENTED_EDGE ( 'NONE', *, *, #354, .F. ) ;
#123 = ORIENTED_EDGE ( 'NONE', *, *, #396, .T. ) ;
#124 = EDGE_LOOP ( 'NONE', ( #125, #99, #96, #120, #142, #100, #121 ) ) ;
#125 = ORIENTED_EDGE ( 'NONE', *, *, #366, .F. ) ;
#126 = ORIENTED_EDGE ( 'NONE', *, *, #407, .F. ) ;
#127 = ORIENTED_EDGE ( 'NONE', *, *, #379, .T. ) ;
#128 = ORIENTED_EDGE ( 'NONE', *, *, #378, .F. ) ;
#129 = VERTEX_POINT ( 'NONE', #296 ) ;
#130 = EDGE_LOOP ( 'NONE', ( #97, #123, #89, #334 ) ) ;
#131 = ORIENTED_EDGE ( 'NONE', *, *, #397, .T. ) ;
#132 = ORIENTED_EDGE ( 'NONE', *, *, #409, .T. ) ;
#133 = VERTEX_POINT ( 'NONE', #224 ) ;
#134 = ORIENTED_EDGE ( 'NONE', *, *, #414, .F. ) ;
#135 = ORIENTED_EDGE ( 'NONE', *, *, #368, .F. ) ;
#136 = ORIENTED_EDGE ( 'NONE', *, *, #377, .F. ) ;
#137 = ORIENTED_EDGE ( 'NONE', *, *, #377, .T. ) ;
#138 = VERTEX_POINT ( 'NONE', #190 ) ;
#139 = EDGE_LOOP ( 'NONE', ( #110, #308, #171, #94, #131 ) ) ;
#140 = ORIENTED_EDGE ( 'NONE', *, *, #369, .F. ) ;
#141 = VERTEX_POINT ( 'NONE', #275 ) ;
#142 = ORIENTED_EDGE ( 'NONE', *, *, #406, .T. ) ;
#143 = ORIENTED_EDGE ( 'NONE', *, *, #375, .F. ) ;
#144 = CARTESIAN_POINT ( 'NONE',  ( 15.23552362175896100, -4.886595949208893500, -4.500000000000000900 ) ) ;
#145 = CARTESIAN_POINT ( 'NONE',  ( -15.50000000000000200, 0.0000000000000000000, 0.0000000000000000000 ) ) ;
#146 = DIRECTION ( 'NONE',  ( -1.000000000000000000, 0.0000000000000000000, 0.0000000000000000000 ) ) ;
#147 = APPROVAL_STATUS ( 'not_yet_approved' ) ;
#148 = PERSON_AND_ORGANIZATION_ROLE ( 'creator' ) ;
#149 = DIRECTION ( 'NONE',  ( -0.0000000000000000000, -0.0000000000000000000, -1.000000000000000000 ) ) ;
#150 = CARTESIAN_POINT ( 'NONE',  ( 0.0000000000000000000, 0.0000000000000000000, -5.000000000000000000 ) ) ;
#151 = LINE ( 'NONE', #261, #21 ) ;
#152 = CARTESIAN_POINT ( 'NONE',  ( 14.35677197265299300, -3.499999999999999600, -5.000000000000000000 ) ) ;
#153 = DIRECTION ( 'NONE',  ( -0.0000000000000000000, -0.0000000000000000000, 1.000000000000000000 ) ) ;
#154 = PERSON_AND_ORGANIZATION_ROLE ( 'design_supplier' ) ;
#155 = CARTESIAN_POINT ( 'NONE',  ( 15.00093279581597200, 4.516431421716911000, -4.834596930599859700 ) ) ;
#156 = ORIENTED_EDGE ( 'NONE', *, *, #367, .F. ) ;
#157 = CARTESIAN_POINT ( 'NONE',  ( 15.00093279581597700, 4.516431421716911900, -0.1654030694001416000 ) ) ;
#158 = ORIENTED_EDGE ( 'NONE', *, *, #365, .F. ) ;
#159 = CARTESIAN_POINT ( 'NONE',  ( 15.00093279581597500, -4.516431421716904800, -4.834596930599859700 ) ) ;
#160 = MECHANICAL_CONTEXT ( 'NONE', #71, 'mechanical' ) ;
#161 = CARTESIAN_POINT ( 'NONE',  ( 0.0000000000000000000, 0.0000000000000000000, 0.0000000000000000000 ) ) ;
#162 = DIRECTION ( 'NONE',  ( 1.000000000000000000, 0.0000000000000000000, 0.0000000000000000000 ) ) ;
#163 = LINE ( 'NONE', #280, #37 ) ;
#164 = CARTESIAN_POINT ( 'NONE',  ( 0.0000000000000000000, 3.500000000000003100, -5.000000000000000000 ) ) ;
#165 = PLANE ( 'NONE',  #6 ) ;
#166 = LINE ( 'NONE', #326, #12 ) ;
#167 = DIRECTION ( 'NONE',  ( 0.0000000000000000000, 0.0000000000000000000, 1.000000000000000000 ) ) ;
#168 = PLANE ( 'NONE',  #15 ) ;
#169 = DIRECTION ( 'NONE',  ( -0.0000000000000000000, -0.0000000000000000000, 1.000000000000000000 ) ) ;
#170 = LINE ( 'NONE', #291, #38 ) ;
#171 = ORIENTED_EDGE ( 'NONE', *, *, #373, .T. ) ;
#172 = APPROVAL_DATE_TIME ( #329, #403 ) ;
#173 = CARTESIAN_POINT ( 'NONE',  ( 15.11846686328201500, 4.701890262116546800, -4.667875191950208200 ) ) ;
#174 = DIRECTION ( 'NONE',  ( 0.0000000000000000000, 0.0000000000000000000, 1.000000000000000000 ) ) ;
#175 = DIRECTION ( 'NONE',  ( 0.0000000000000000000, 0.0000000000000000000, -1.000000000000000000 ) ) ;
#176 = CARTESIAN_POINT ( 'NONE',  ( 14.35677197265299300, 3.500000000000003100, 0.0000000000000000000 ) ) ;
#177 = CARTESIAN_POINT ( 'NONE',  ( 8.660349295060697700, 5.488474295060681700, 0.0000000000000000000 ) ) ;
#178 = LINE ( 'NONE', #233, #27 ) ;
#179 = ORIENTED_EDGE ( 'NONE', *, *, #404, .T. ) ;
#180 = DIRECTION ( 'NONE',  ( 1.000000000000000000, 0.0000000000000000000, -0.0000000000000000000 ) ) ;
#181 = DATE_AND_TIME ( #56, #412 ) ;
#182 = DIRECTION ( 'NONE',  ( -1.000000000000000000, -0.0000000000000000000, 0.0000000000000000000 ) ) ;
#183 = ORIENTED_EDGE ( 'NONE', *, *, #385, .T. ) ;
#184 = PLANE ( 'NONE',  #11 ) ;
#185 = DIRECTION ( 'NONE',  ( 0.8446609260664208500, 0.5353017092973050300, -0.0000000000000000000 ) ) ;
#186 = DIRECTION ( 'NONE',  ( 0.0000000000000000000, 0.0000000000000000000, -1.000000000000000000 ) ) ;
#187 = CARTESIAN_POINT ( 'NONE',  ( 0.0000000000000000000, 0.0000000000000000000, -5.000000000000000000 ) ) ;
#188 = PERSON_AND_ORGANIZATION ( #344, #34 ) ;
#189 = DIRECTION ( 'NONE',  ( -0.0000000000000000000, 1.000000000000000000, 0.0000000000000000000 ) ) ;
#190 = CARTESIAN_POINT ( 'NONE',  ( 14.88287190947041000, 4.330141305580770700, 0.0000000000000000000 ) ) ;
#191 = CARTESIAN_POINT ( 'NONE',  ( 0.0000000000000000000, 0.0000000000000000000, -0.5000000000000038900 ) ) ;
#192 = CARTESIAN_POINT ( 'NONE',  ( 0.0000000000000000000, 0.0000000000000000000, 0.0000000000000000000 ) ) ;
#193 = DIRECTION ( 'NONE',  ( -0.7071067811865439100, 0.0000000000000000000, -0.7071067811865512400 ) ) ;
#194 = DIRECTION ( 'NONE',  ( 0.0000000000000000000, 0.0000000000000000000, -1.000000000000000000 ) ) ;
#195 = DIRECTION ( 'NONE',  ( 0.0000000000000000000, 0.0000000000000000000, 1.000000000000000000 ) ) ;
#196 = DIRECTION ( 'NONE',  ( 1.000000000000000000, 0.0000000000000000000, 0.0000000000000000000 ) ) ;
#197 = CARTESIAN_POINT ( 'NONE',  ( 4.286251410902777200E-016, -3.500000000000001300, 0.0000000000000000000 ) ) ;
#198 = DIRECTION ( 'NONE',  ( 0.0000000000000000000, 0.0000000000000000000, -1.000000000000000000 ) ) ;
#199 = ORIENTED_EDGE ( 'NONE', *, *, #386, .F. ) ;
#200 = PERSON_AND_ORGANIZATION ( #344, #34 ) ;
#201 = LINE ( 'NONE', #332, #5 ) ;
#202 = DIRECTION ( 'NONE',  ( -1.000000000000000000, 0.0000000000000000000, 0.0000000000000000000 ) ) ;
#203 = CARTESIAN_POINT ( 'NONE',  ( 0.0000000000000000000, 3.500000000000003100, -5.000000000000000000 ) ) ;
#204 = PERSON_AND_ORGANIZATION_ROLE ( 'creator' ) ;
#205 = ORIENTED_EDGE ( 'NONE', *, *, #362, .F. ) ;
#206 = DIRECTION ( 'NONE',  ( 0.0000000000000000000, 0.0000000000000000000, 1.000000000000000000 ) ) ;
#207 = SECURITY_CLASSIFICATION_LEVEL ( 'unclassified' ) ;
#208 = SHAPE_DEFINITION_REPRESENTATION ( #347, #343 ) ;
#209 = DIRECTION ( 'NONE',  ( -0.5353017092973034700, -0.8446609260664218500, 0.0000000000000000000 ) ) ;
#210 = APPROVAL_DATE_TIME ( #249, #387 ) ;
#211 = PERSON_AND_ORGANIZATION_ROLE ( 'design_owner' ) ;
#212 = PERSON_AND_ORGANIZATION ( #344, #34 ) ;
#213 = CARTESIAN_POINT ( 'NONE',  ( 0.0000000000000000000, 0.0000000000000000000, -5.000000000000000000 ) ) ;
#214 = PERSON_AND_ORGANIZATION ( #344, #34 ) ;
#215 = DIRECTION ( 'NONE',  ( 1.000000000000000000, 1.084202172485504200E-016, 0.0000000000000000000 ) ) ;
#216 = CARTESIAN_POINT ( 'NONE',  ( -16.00000000000000000, 0.0000000000000000000, -0.5000000000000038900 ) ) ;
#217 = ORIENTED_EDGE ( 'NONE', *, *, #365, .T. ) ;
#218 = DIRECTION ( 'NONE',  ( 1.000000000000000000, 0.0000000000000000000, 0.0000000000000000000 ) ) ;
#219 = CARTESIAN_POINT ( 'NONE',  ( 15.00093279581597500, -4.516431421716909300, -0.1654030694001420400 ) ) ;
#220 = CARTESIAN_POINT ( 'NONE',  ( 0.0000000000000000000, 0.0000000000000000000, 0.0000000000000000000 ) ) ;
#221 = CARTESIAN_POINT ( 'NONE',  ( 15.23552362175895800, 4.886595949208897900, -5.000000000000000000 ) ) ;
#222 = APPLICATION_PROTOCOL_DEFINITION ( 'international standard', 'config_control_design', 1994, #72 ) ;
#223 = CARTESIAN_POINT ( 'NONE',  ( 8.660349295060722600, -5.488474295060675500, 0.0000000000000000000 ) ) ;
#224 = CARTESIAN_POINT ( 'NONE',  ( 0.0000000000000000000, 3.500000000000003100, 0.0000000000000000000 ) ) ;
#225 = CARTESIAN_POINT ( 'NONE',  ( 0.0000000000000000000, 3.500000000000003100, -5.000000000000000000 ) ) ;
#226 = DIRECTION ( 'NONE',  ( 0.0000000000000000000, 0.0000000000000000000, 1.000000000000000000 ) ) ;
#227 = DIRECTION ( 'NONE',  ( -0.5353017092973049200, 0.8446609260664207400, 0.0000000000000000000 ) ) ;
#228 = CARTESIAN_POINT ( 'NONE',  ( 0.0000000000000000000, 0.0000000000000000000, -4.500000000000000900 ) ) ;
#229 = DIRECTION ( 'NONE',  ( 0.0000000000000000000, 0.0000000000000000000, -1.000000000000000000 ) ) ;
#230 = DIRECTION ( 'NONE',  ( 1.000000000000000000, 0.0000000000000000000, 0.0000000000000000000 ) ) ;
#231 = CARTESIAN_POINT ( 'NONE',  ( 14.88287190947040800, -4.330141305580764500, 0.0000000000000000000 ) ) ;
#232 = DIRECTION ( 'NONE',  ( -0.5353017092973034700, -0.8446609260664217400, 0.0000000000000000000 ) ) ;
#233 = CARTESIAN_POINT ( 'NONE',  ( 14.35677197265299500, 3.500000000000003100, -0.5000000000000034400 ) ) ;
#234 = PLANE ( 'NONE',  #44 ) ;
#235 =( LENGTH_UNIT ( ) NAMED_UNIT ( * ) SI_UNIT ( .MILLI., .METRE. ) );
#236 = DIRECTION ( 'NONE',  ( -0.8446609260664218500, 0.5353017092973034700, 0.0000000000000000000 ) ) ;
#237 = DATE_AND_TIME ( #2, #380 ) ;
#238 = PERSON_AND_ORGANIZATION ( #344, #34 ) ;
#239 = DIRECTION ( 'NONE',  ( 1.000000000000000000, 0.0000000000000000000, 0.0000000000000000000 ) ) ;
#240 = LINE ( 'NONE', #177, #14 ) ;
#241 = APPROVAL_ROLE ( '' ) ;
#242 = APPROVAL_STATUS ( 'not_yet_approved' ) ;
#243 = DIRECTION ( 'NONE',  ( 1.000000000000000000, 0.0000000000000000000, 0.0000000000000000000 ) ) ;
#244 = CARTESIAN_POINT ( 'NONE',  ( 15.11846686328201500, 4.701890262116546800, -0.3321248080497955500 ) ) ;
#245 = LINE ( 'NONE', #303, #52 ) ;
#246 = DATE_TIME_ROLE ( 'creation_date' ) ;
#247 = CARTESIAN_POINT ( 'NONE',  ( 0.0000000000000000000, 0.0000000000000000000, -4.500000000000000900 ) ) ;
#248 = CARTESIAN_POINT ( 'NONE',  ( 14.88287190947041000, 4.330141305580770700, 0.0000000000000000000 ) ) ;
#249 = DATE_AND_TIME ( #59, #392 ) ;
#250 = PERSON_AND_ORGANIZATION ( #344, #34 ) ;
#251 = CARTESIAN_POINT ( 'NONE',  ( 14.88287190947040800, 4.330141305580763600, -5.000000000000000000 ) ) ;
#252 = APPLICATION_PROTOCOL_DEFINITION ( 'international standard', 'config_control_design', 1994, #71 ) ;
#253 = PERSON_AND_ORGANIZATION ( #344, #34 ) ;
#254 = LINE ( 'NONE', #145, #45 ) ;
#255 = LINE ( 'NONE', #203, #70 ) ;
#256 = CARTESIAN_POINT ( 'NONE',  ( 14.88287190947040800, 4.330141305580763600, -5.000000000000000000 ) ) ;
#257 = DIRECTION ( 'NONE',  ( -1.000000000000000000, -0.0000000000000000000, -0.0000000000000000000 ) ) ;
#258 = LINE ( 'NONE', #223, #54 ) ;
#259 = CARTESIAN_POINT ( 'NONE',  ( 0.0000000000000000000, 0.0000000000000000000, -5.000000000000000000 ) ) ;
#260 = DIRECTION ( 'NONE',  ( 1.000000000000000000, 0.0000000000000000000, 0.0000000000000000000 ) ) ;
#261 = CARTESIAN_POINT ( 'NONE',  ( 14.35677197265299500, 3.500000000000003100, -5.000000000000000000 ) ) ;
#262 = CARTESIAN_POINT ( 'NONE',  ( 14.88287190947040800, -4.330141305580764500, 0.0000000000000000000 ) ) ;
#263 = DIRECTION ( 'NONE',  ( 0.0000000000000000000, 0.0000000000000000000, 1.000000000000000000 ) ) ;
#264 =( NAMED_UNIT ( * ) SI_UNIT ( $, .STERADIAN. ) SOLID_ANGLE_UNIT ( ) );
#265 = PERSON_AND_ORGANIZATION ( #344, #34 ) ;
#266 = DATE_AND_TIME ( #42, #394 ) ;
#267 = CARTESIAN_POINT ( 'NONE',  ( 15.23552362175895800, 4.886595949208897900, -0.5000000000000038900 ) ) ;
#268 = CARTESIAN_POINT ( 'NONE',  ( 0.0000000000000000000, 0.0000000000000000000, -5.000000000000000000 ) ) ;
#269 = DIRECTION ( 'NONE',  ( 1.000000000000000000, 0.0000000000000000000, 0.0000000000000000000 ) ) ;
#270 = CARTESIAN_POINT ( 'NONE',  ( 14.35677197265299300, -3.499999999999999600, -5.000000000000000000 ) ) ;
#271 = CARTESIAN_POINT ( 'NONE',  ( 15.23552362175896100, 4.886595949208897100, -4.500000000000000900 ) ) ;
#272 = DIRECTION ( 'NONE',  ( 1.000000000000000000, 1.084202172485504200E-016, -0.0000000000000000000 ) ) ;
#273 = CARTESIAN_POINT ( 'NONE',  ( 0.0000000000000000000, 0.0000000000000000000, 0.0000000000000000000 ) ) ;
#274 = APPROVAL_DATE_TIME ( #237, #413 ) ;
#275 = CARTESIAN_POINT ( 'NONE',  ( 4.286263797015738100E-016, -3.500000000000001300, -5.000000000000000000 ) ) ;
#276 = CARTESIAN_POINT ( 'NONE',  ( 0.0000000000000000000, 0.0000000000000000000, 0.0000000000000000000 ) ) ;
#277 = DIRECTION ( 'NONE',  ( 1.000000000000000000, 0.0000000000000000000, 0.0000000000000000000 ) ) ;
#278 = DIRECTION ( 'NONE',  ( 0.5353017092973034700, 0.8446609260664217400, -0.0000000000000000000 ) ) ;
#279 = LINE ( 'NONE', #293, #33 ) ;
#280 = CARTESIAN_POINT ( 'NONE',  ( 15.23552362175895800, -4.886595949208892600, -5.000000000000000000 ) ) ;
#281 = DIRECTION ( 'NONE',  ( 0.0000000000000000000, 0.0000000000000000000, 1.000000000000000000 ) ) ;
#282 = DIRECTION ( 'NONE',  ( 1.000000000000000000, 0.0000000000000000000, 0.0000000000000000000 ) ) ;
#283 = DIRECTION ( 'NONE',  ( 0.0000000000000000000, -0.0000000000000000000, 1.000000000000000000 ) ) ;
#284 = CARTESIAN_POINT ( 'NONE',  ( 15.23552362175896100, -4.886595949208891700, -0.5000000000000038900 ) ) ;
#285 = DIRECTION ( 'NONE',  ( 1.000000000000000000, 0.0000000000000000000, -0.0000000000000000000 ) ) ;
#286 = CARTESIAN_POINT ( 'NONE',  ( 15.23552362175896100, -4.886595949208891700, -0.5000000000000038900 ) ) ;
#287 = DIRECTION ( 'NONE',  ( -0.0000000000000000000, -0.0000000000000000000, 1.000000000000000000 ) ) ;
#288 = ORIENTED_EDGE ( 'NONE', *, *, #354, .T. ) ;
#289 = CARTESIAN_POINT ( 'NONE',  ( 0.0000000000000000000, 0.0000000000000000000, 0.0000000000000000000 ) ) ;
#290 = DIRECTION ( 'NONE',  ( -0.0000000000000000000, -0.0000000000000000000, 1.000000000000000000 ) ) ;
#291 = CARTESIAN_POINT ( 'NONE',  ( 0.0000000000000000000, 3.500000000000003100, -5.000000000000000000 ) ) ;
#292 = DIRECTION ( 'NONE',  ( 1.084202172485504200E-016, -1.000000000000000000, 0.0000000000000000000 ) ) ;
#293 = CARTESIAN_POINT ( 'NONE',  ( 4.286263797015738100E-016, -3.500000000000001300, -5.000000000000000000 ) ) ;
#294 = CARTESIAN_POINT ( 'NONE',  ( 15.23552362175895800, 4.886595949208897900, -0.5000000000000038900 ) ) ;
#295 = CARTESIAN_POINT ( 'NONE',  ( 16.00000000000000400, -3.499999999999999600, -5.000000000000000000 ) ) ;
#296 = CARTESIAN_POINT ( 'NONE',  ( -15.50000000000000200, 0.0000000000000000000, 0.0000000000000000000 ) ) ;
#297 = DIRECTION ( 'NONE',  ( 1.000000000000000000, 0.0000000000000000000, 0.0000000000000000000 ) ) ;
#298 = DIRECTION ( 'NONE',  ( 1.000000000000000000, 0.0000000000000000000, 0.0000000000000000000 ) ) ;
#299 = CARTESIAN_POINT ( 'NONE',  ( 0.0000000000000000000, 3.500000000000003100, 0.0000000000000000000 ) ) ;
#300 = DIRECTION ( 'NONE',  ( -0.0000000000000000000, -0.0000000000000000000, 1.000000000000000000 ) ) ;
#301 = CARTESIAN_POINT ( 'NONE',  ( 14.35677197265299300, -3.499999999999999600, -5.000000000000000000 ) ) ;
#302 = CARTESIAN_POINT ( 'NONE',  ( 14.35677197265298800, 3.500000000000000400, -5.000000000000000000 ) ) ;
#303 = CARTESIAN_POINT ( 'NONE',  ( 16.00000000000000400, -3.499999999999999600, -5.000000000000000000 ) ) ;
#304 = LINE ( 'NONE', #221, #19 ) ;
#305 = PERSON_AND_ORGANIZATION_ROLE ( 'classification_officer' ) ;
#306 = CARTESIAN_POINT ( 'NONE',  ( 15.23552362175896100, 4.886595949208897100, -4.500000000000000900 ) ) ;
#307 = PLANE ( 'NONE',  #66 ) ;
#308 = ORIENTED_EDGE ( 'NONE', *, *, #358, .T. ) ;
#309 = LINE ( 'NONE', #301, #63 ) ;
#310 =( NAMED_UNIT ( * ) PLANE_ANGLE_UNIT ( ) SI_UNIT ( $, .RADIAN. ) );
#311 = CARTESIAN_POINT ( 'NONE',  ( 15.23552362175896100, -4.886595949208893500, -4.500000000000000900 ) ) ;
#312 = CARTESIAN_POINT ( 'NONE',  ( 0.0000000000000000000, 0.0000000000000000000, -0.5000000000000038900 ) ) ;
#313 = APPROVAL_STATUS ( 'not_yet_approved' ) ;
#314 = DIRECTION ( 'NONE',  ( 0.0000000000000000000, 0.0000000000000000000, 1.000000000000000000 ) ) ;
#315 = CARTESIAN_POINT ( 'NONE',  ( 14.35677197265299500, 3.500000000000003100, -5.000000000000000000 ) ) ;
#316 = LINE ( 'NONE', #299, #24 ) ;
#317 = DIRECTION ( 'NONE',  ( 0.0000000000000000000, 0.0000000000000000000, 1.000000000000000000 ) ) ;
#318 = CARTESIAN_POINT ( 'NONE',  ( 15.11846686328201800, -4.701890262116543300, -0.3321248080497943800 ) ) ;
#319 = CARTESIAN_POINT ( 'NONE',  ( 14.88287190947040600, -4.330141305580761800, -5.000000000000000000 ) ) ;
#320 = ORIENTED_EDGE ( 'NONE', *, *, #362, .T. ) ;
#321 = DIRECTION ( 'NONE',  ( -0.5353017092973049200, 0.8446609260664207400, 0.0000000000000000000 ) ) ;
#322 = DIRECTION ( 'NONE',  ( 0.0000000000000000000, 0.0000000000000000000, 1.000000000000000000 ) ) ;
#323 = CARTESIAN_POINT ( 'NONE',  ( 0.0000000000000000000, 0.0000000000000000000, 0.0000000000000000000 ) ) ;
#324 = DIRECTION ( 'NONE',  ( 1.000000000000000000, 1.084202172485504200E-016, -0.0000000000000000000 ) ) ;
#325 = PLANE ( 'NONE',  #25 ) ;
#326 = CARTESIAN_POINT ( 'NONE',  ( 16.00000000000000400, -3.499999999999999600, 0.0000000000000000000 ) ) ;
#327 = CARTESIAN_POINT ( 'NONE',  ( 15.11846686328201600, -4.701890262116541500, -4.667875191950207300 ) ) ;
#328 = DATE_TIME_ROLE ( 'classification_date' ) ;
#329 = DATE_AND_TIME ( #17, #372 ) ;
#330 = CARTESIAN_POINT ( 'NONE',  ( 14.35677197265299700, -3.500000000000000000, 0.0000000000000000000 ) ) ;
#331 = DIRECTION ( 'NONE',  ( -0.0000000000000000000, -0.0000000000000000000, -1.000000000000000000 ) ) ;
#332 = CARTESIAN_POINT ( 'NONE',  ( 14.35677197265299300, -3.499999999999999600, -4.500000000000000900 ) ) ;
#333 = CARTESIAN_POINT ( 'NONE',  ( 14.88287190947040600, -4.330141305580761800, -5.000000000000000000 ) ) ;
#334 = ORIENTED_EDGE ( 'NONE', *, *, #352, .F. ) ;
#335 = APPROVAL_ROLE ( '' ) ;
#336 = DIRECTION ( 'NONE',  ( 0.5353017092973049200, -0.8446609260664207400, 0.0000000000000000000 ) ) ;
#337 = APPROVAL_ROLE ( '' ) ;
#338 =( GEOMETRIC_REPRESENTATION_CONTEXT ( 3 ) GLOBAL_UNCERTAINTY_ASSIGNED_CONTEXT ( ( #342 ) ) GLOBAL_UNIT_ASSIGNED_CONTEXT ( ( #235, #310, #264 ) ) REPRESENTATION_CONTEXT ( 'NONE', 'WORKASPACE' ) );
#339 = B_SPLINE_CURVE_WITH_KNOTS ( 'NONE', 3,
 ( #333, #159, #327, #144 ),
 .UNSPECIFIED., .F., .F.,
 ( 4, 4 ),
 ( 0.0000000000000000000, 0.0008270459482975299000 ),
 .UNSPECIFIED. ) ;
#340 = B_SPLINE_CURVE_WITH_KNOTS ( 'NONE', 3,
 ( #248, #157, #244, #267 ),
 .UNSPECIFIED., .F., .F.,
 ( 4, 4 ),
 ( 0.0000000000000000000, 0.0008270459482975262200 ),
 .UNSPECIFIED. ) ;
#341 = B_SPLINE_CURVE_WITH_KNOTS ( 'NONE', 3,
 ( #271, #173, #155, #256 ),
 .UNSPECIFIED., .F., .F.,
 ( 4, 4 ),
 ( 1.226634733346699300E-018, 0.0008270459482975283900 ),
 .UNSPECIFIED. ) ;
#342 = UNCERTAINTY_MEASURE_WITH_UNIT (LENGTH_MEASURE( 1.000000000000000100E-005 ), #235, 'distance_accuracy_value', 'NONE');
#343 = ADVANCED_BREP_SHAPE_REPRESENTATION ( 'WDS-402-203', ( #346, #8 ), #338 ) ;
#344 = PERSON ( 'UNSPECIFIED', 'UNSPECIFIED', 'UNSPECIFIED', ('UNSPECIFIED'), ('UNSPECIFIED'), ('UNSPECIFIED') ) ;
#345 = B_SPLINE_CURVE_WITH_KNOTS ( 'NONE', 3,
 ( #284, #318, #219, #262 ),
 .UNSPECIFIED., .F., .F.,
 ( 4, 4 ),
 ( 1.152522718400459600E-018, 0.0008270459482975301200 ),
 .UNSPECIFIED. ) ;
#346 = MANIFOLD_SOLID_BREP ( 'Chamfer2', #9 ) ;
#347 = PRODUCT_DEFINITION_SHAPE ( 'NONE', 'NONE',  #395 ) ;
#348 = DESIGN_CONTEXT ( 'detailed design', #72, 'design' ) ;
#349 = ADVANCED_FACE ( 'NONE', ( #29 ), #165, .F. ) ;
#350 = ADVANCED_FACE ( 'NONE', ( #4 ), #370, .T. ) ;
#351 = ADVANCED_FACE ( 'NONE', ( #28 ), #401, .T. ) ;
#352 = EDGE_CURVE ( 'NONE', #87, #133, #170, .T. ) ;
#353 = EDGE_CURVE ( 'NONE', #86, #80, #393, .T. ) ;
#354 = EDGE_CURVE ( 'NONE', #88, #79, #151, .T. ) ;
#355 = CONICAL_SURFACE ( 'NONE', #46, 15.50000000000000200, 0.7853981633974431700 ) ;
#356 = ADVANCED_FACE ( 'NONE', ( #53 ), #234, .T. ) ;
#357 = ADVANCED_FACE ( 'NONE', ( #30 ), #325, .F. ) ;
#358 = EDGE_CURVE ( 'NONE', #82, #81, #361, .T. ) ;
#359 = PRODUCT_RELATED_PRODUCT_CATEGORY ( 'detail', '', ( #1 ) ) ;
#360 = EDGE_CURVE ( 'NONE', #108, #138, #258, .T. ) ;
#361 = CIRCLE ( 'NONE', #69, 16.00000000000000000 ) ;
#362 = EDGE_CURVE ( 'NONE', #129, #82, #254, .T. ) ;
#363 = CC_DESIGN_PERSON_AND_ORGANIZATION_ASSIGNMENT ( #250, #204, ( #22 ) ) ;
#364 = CIRCLE ( 'NONE', #61, 16.00000000000000000 ) ;
#365 = EDGE_CURVE ( 'NONE', #141, #85, #245, .T. ) ;
#366 = EDGE_CURVE ( 'NONE', #108, #133, #316, .T. ) ;
#367 = EDGE_CURVE ( 'NONE', #129, #91, #376, .T. ) ;
#368 = EDGE_CURVE ( 'NONE', #87, #141, #383, .T. ) ;
#369 = EDGE_CURVE ( 'NONE', #107, #91, #345, .T. ) ;
#370 = CONICAL_SURFACE ( 'NONE', #16, 16.00000000000000000, 0.7853981633974509400 ) ;
#371 = CIRCLE ( 'NONE', #13, 3.500000000000002200 ) ;
#372 = LOCAL_TIME ( 8, 47, 10.00000000000000000, #41 ) ;
#373 = EDGE_CURVE ( 'NONE', #81, #86, #304, .T. ) ;
#374 = ADVANCED_FACE ( 'NONE', ( #3 ), #184, .T. ) ;
#375 = EDGE_CURVE ( 'NONE', #75, #88, #411, .T. ) ;
#376 = CIRCLE ( 'NONE', #18, 15.50000000000000200 ) ;
#377 = EDGE_CURVE ( 'NONE', #86, #88, #341, .T. ) ;
#378 = EDGE_CURVE ( 'NONE', #75, #80, #339, .T. ) ;
#379 = EDGE_CURVE ( 'NONE', #111, #78, #166, .T. ) ;
#380 = LOCAL_TIME ( 8, 47, 10.00000000000000000, #26 ) ;
#381 = ADVANCED_FACE ( 'NONE', ( #67 ), #168, .F. ) ;
#382 = CC_DESIGN_DATE_AND_TIME_ASSIGNMENT ( #266, #328, ( #68 ) ) ;
#383 = CIRCLE ( 'NONE', #60, 3.500000000000002200 ) ;
#384 = ADVANCED_FACE ( 'NONE', ( #7 ), #39, .T. ) ;
#385 = EDGE_CURVE ( 'NONE', #79, #87, #255, .T. ) ;
#386 = EDGE_CURVE ( 'NONE', #107, #82, #364, .T. ) ;
#387 = APPROVAL ( #147, 'UNSPECIFIED' ) ;
#388 = CC_DESIGN_PERSON_AND_ORGANIZATION_ASSIGNMENT ( #188, #211, ( #1 ) ) ;
#389 = CC_DESIGN_PERSON_AND_ORGANIZATION_ASSIGNMENT ( #200, #148, ( #395 ) ) ;
#390 = ADVANCED_FACE ( 'NONE', ( #35 ), #355, .T. ) ;
#391 = EDGE_CURVE ( 'NONE', #78, #85, #201, .T. ) ;
#392 = LOCAL_TIME ( 8, 47, 10.00000000000000000, #50 ) ;
#393 = CIRCLE ( 'NONE', #65, 16.00000000000000000 ) ;
#394 = LOCAL_TIME ( 8, 47, 10.00000000000000000, #32 ) ;
#395 = PRODUCT_DEFINITION ( 'UNKNOWN', '', #22, #348 ) ;
#396 = EDGE_CURVE ( 'NONE', #79, #108, #178, .T. ) ;
#397 = EDGE_CURVE ( 'NONE', #80, #107, #163, .T. ) ;
#398 = ADVANCED_FACE ( 'NONE', ( #55 ), #43, .F. ) ;
#399 = ADVANCED_FACE ( 'NONE', ( #48 ), #307, .F. ) ;
#400 = CC_DESIGN_PERSON_AND_ORGANIZATION_ASSIGNMENT ( #265, #305, ( #68 ) ) ;
#401 = CONICAL_SURFACE ( 'NONE', #64, 15.50000000000000200, 0.7853981633974431700 ) ;
#402 = CC_DESIGN_DATE_AND_TIME_ASSIGNMENT ( #181, #246, ( #395 ) ) ;
#403 = APPROVAL ( #313, 'UNSPECIFIED' ) ;
#404 = EDGE_CURVE ( 'NONE', #85, #75, #309, .T. ) ;
#405 = EDGE_CURVE ( 'NONE', #133, #111, #371, .T. ) ;
#406 = EDGE_CURVE ( 'NONE', #91, #78, #240, .T. ) ;
#407 = EDGE_CURVE ( 'NONE', #138, #129, #408, .T. ) ;
#408 = CIRCLE ( 'NONE', #31, 15.50000000000000200 ) ;
#409 = EDGE_CURVE ( 'NONE', #138, #81, #340, .T. ) ;
#410 = CC_DESIGN_PERSON_AND_ORGANIZATION_ASSIGNMENT ( #212, #154, ( #22 ) ) ;
#411 = CIRCLE ( 'NONE', #62, 15.49999999999999800 ) ;
#412 = LOCAL_TIME ( 8, 47, 10.00000000000000000, #23 ) ;
#413 = APPROVAL ( #242, 'UNSPECIFIED' ) ;
#414 = EDGE_CURVE ( 'NONE', #141, #111, #279, .T. ) ;
ENDSEC;
END-ISO-10303-21;
