ISO-10303-21;
HEADER;
FILE_DESCRIPTION (( 'STEP AP203' ),
    '1' );
FILE_NAME ('WDS-401-212F.step',
    '2012-04-05T12:38:32',
    ( 'SysAdmin' ),
    ( 'SolidWorks' ),
    'SwSTEP 2.0',
    'SolidWorks 2012',
    '' );
FILE_SCHEMA (( 'CONFIG_CONTROL_DESIGN' ));
ENDSEC;

DATA;
#1 = EDGE_CURVE ( 'NONE', #238, #236, #33, .T. ) ;
#2 = ADVANCED_FACE ( 'NONE', ( #107, #91 ), #211, .T. ) ;
#3 = CIRCLE ( 'NONE', #69, 40.00000000000000000 ) ;
#4 = PRODUCT_RELATED_PRODUCT_CATEGORY ( 'detail', '', ( #122 ) ) ;
#5 = LOCAL_TIME ( 8, 38, 32.00000000000000000, #85 ) ;
#6 = APPROVAL ( #255, 'UNSPECIFIED' ) ;
#7 = CC_DESIGN_DATE_AND_TIME_ASSIGNMENT ( #258, #257, ( #58 ) ) ;
#8 = LOCAL_TIME ( 8, 38, 32.00000000000000000, #119 ) ;
#9 = CC_DESIGN_PERSON_AND_ORGANIZATION_ASSIGNMENT ( #265, #264, ( #93 ) ) ;
#10 = CIRCLE ( 'NONE', #118, 21.00000000000000000 ) ;
#11 = CC_DESIGN_PERSON_AND_ORGANIZATION_ASSIGNMENT ( #274, #273, ( #15 ) ) ;
#12 = LOCAL_TIME ( 8, 38, 32.00000000000000000, #89 ) ;
#13 = CC_DESIGN_PERSON_AND_ORGANIZATION_ASSIGNMENT ( #282, #281, ( #122 ) ) ;
#14 = APPROVAL ( #278, 'UNSPECIFIED' ) ;
#15 = PRODUCT_DEFINITION ( 'UNKNOWN', '', #93, #321 ) ;
#16 = EDGE_CURVE ( 'NONE', #241, #167, #54, .T. ) ;
#17 = EDGE_CURVE ( 'NONE', #240, #164, #45, .T. ) ;
#18 = EDGE_CURVE ( 'NONE', #166, #234, #3, .T. ) ;
#19 = EDGE_CURVE ( 'NONE', #165, #163, #39, .T. ) ;
#20 = EDGE_CURVE ( 'NONE', #163, #188, #57, .T. ) ;
#21 = EDGE_CURVE ( 'NONE', #236, #237, #37, .T. ) ;
#22 = ADVANCED_FACE ( 'NONE', ( #99 ), #100, .T. ) ;
#23 = CC_DESIGN_PERSON_AND_ORGANIZATION_ASSIGNMENT ( #263, #262, ( #93 ) ) ;
#24 = CC_DESIGN_PERSON_AND_ORGANIZATION_ASSIGNMENT ( #260, #259, ( #58 ) ) ;
#25 = EDGE_CURVE ( 'NONE', #237, #167, #228, .T. ) ;
#26 = ADVANCED_FACE ( 'NONE', ( #75 ), #64, .F. ) ;
#27 = ADVANCED_FACE ( 'NONE', ( #112 ), #63, .T. ) ;
#28 = ADVANCED_FACE ( 'NONE', ( #84, #73 ), #251, .F. ) ;
#29 = EDGE_CURVE ( 'NONE', #164, #240, #38, .T. ) ;
#30 = ADVANCED_FACE ( 'NONE', ( #82 ), #102, .F. ) ;
#31 = CIRCLE ( 'NONE', #110, 21.00000000000000400 ) ;
#32 = EDGE_CURVE ( 'NONE', #163, #165, #48, .T. ) ;
#33 = CIRCLE ( 'NONE', #121, 21.00000000000000400 ) ;
#34 = EDGE_CURVE ( 'NONE', #165, #236, #36, .T. ) ;
#35 = EDGE_CURVE ( 'NONE', #188, #238, #31, .T. ) ;
#36 = CIRCLE ( 'NONE', #90, 95.00000000000001400 ) ;
#37 = CIRCLE ( 'NONE', #96, 21.00000000000000400 ) ;
#38 = CIRCLE ( 'NONE', #80, 40.00000000000000000 ) ;
#39 = CIRCLE ( 'NONE', #83, 39.80000000000000400 ) ;
#40 = EDGE_CURVE ( 'NONE', #234, #166, #41, .T. ) ;
#41 = CIRCLE ( 'NONE', #106, 40.00000000000000000 ) ;
#42 = ADVANCED_FACE ( 'NONE', ( #117 ), #116, .F. ) ;
#43 = EDGE_CURVE ( 'NONE', #238, #241, #187, .T. ) ;
#44 = EDGE_CURVE ( 'NONE', #167, #241, #10, .T. ) ;
#45 = CIRCLE ( 'NONE', #72, 40.00000000000000000 ) ;
#46 = EDGE_CURVE ( 'NONE', #164, #234, #314, .T. ) ;
#47 = EDGE_CURVE ( 'NONE', #240, #166, #311, .T. ) ;
#48 = CIRCLE ( 'NONE', #97, 39.80000000000000400 ) ;
#49 = LOCAL_TIME ( 8, 38, 32.00000000000000000, #77 ) ;
#50 = CIRCLE ( 'NONE', #111, 21.00000000000000400 ) ;
#51 = CC_DESIGN_DATE_AND_TIME_ASSIGNMENT ( #272, #271, ( #15 ) ) ;
#52 = APPROVAL ( #269, 'UNSPECIFIED' ) ;
#53 = LOCAL_TIME ( 8, 38, 32.00000000000000000, #76 ) ;
#54 = CIRCLE ( 'NONE', #98, 21.00000000000000000 ) ;
#55 = ADVANCED_FACE ( 'NONE', ( #94 ), #95, .F. ) ;
#56 = EDGE_CURVE ( 'NONE', #237, #188, #50, .T. ) ;
#57 = CIRCLE ( 'NONE', #78, 95.00000000000001400 ) ;
#58 = SECURITY_CLASSIFICATION ( '', '', #261 ) ;
#59 = CALENDAR_DATE ( 2012, 5, 4 ) ;
#60 = CALENDAR_DATE ( 2012, 5, 4 ) ;
#61 = ORGANIZATION ( 'UNSPECIFIED', 'UNSPECIFIED', '' ) ;
#62 = VECTOR ( 'NONE', #158, 1000.000000000000000 ) ;
#63 = CYLINDRICAL_SURFACE ( 'NONE', #88, 40.00000000000000000 ) ;
#64 = SPHERICAL_SURFACE ( 'NONE', #114, 95.00000000000001400 ) ;
#65 = APPROVAL_PERSON_ORGANIZATION ( #270, #52, #268 ) ;
#66 = AXIS2_PLACEMENT_3D ( 'NONE', #246, #249, #244 ) ;
#67 = AXIS2_PLACEMENT_3D ( 'NONE', #145, #146, #181 ) ;
#68 = CALENDAR_DATE ( 2012, 5, 4 ) ;
#69 = AXIS2_PLACEMENT_3D ( 'NONE', #142, #217, #219 ) ;
#70 = CC_DESIGN_APPROVAL ( #14, ( #15 ) ) ;
#71 = AXIS2_PLACEMENT_3D ( 'NONE', #161, #308, #307 ) ;
#72 = AXIS2_PLACEMENT_3D ( 'NONE', #216, #248, #144 ) ;
#73 = FACE_BOUND ( 'NONE', #239, .T. ) ;
#74 = CALENDAR_DATE ( 2012, 5, 4 ) ;
#75 = FACE_OUTER_BOUND ( 'NONE', #200, .T. ) ;
#76 = COORDINATED_UNIVERSAL_TIME_OFFSET ( 5, 0, .BEHIND. ) ;
#77 = COORDINATED_UNIVERSAL_TIME_OFFSET ( 5, 0, .BEHIND. ) ;
#78 = AXIS2_PLACEMENT_3D ( 'NONE', #194, #195, #196 ) ;
#79 = CC_DESIGN_APPROVAL ( #52, ( #93 ) ) ;
#80 = AXIS2_PLACEMENT_3D ( 'NONE', #242, #245, #247 ) ;
#81 = CLOSED_SHELL ( 'NONE', ( #55, #42, #22, #2, #27, #30, #26, #28 ) ) ;
#82 = FACE_OUTER_BOUND ( 'NONE', #136, .T. ) ;
#83 = AXIS2_PLACEMENT_3D ( 'NONE', #192, #220, #218 ) ;
#84 = FACE_OUTER_BOUND ( 'NONE', #201, .T. ) ;
#85 = COORDINATED_UNIVERSAL_TIME_OFFSET ( 5, 0, .BEHIND. ) ;
#86 = AXIS2_PLACEMENT_3D ( 'NONE', #154, #155, #156 ) ;
#87 = VECTOR ( 'NONE', #309, 1000.000000000000000 ) ;
#88 = AXIS2_PLACEMENT_3D ( 'NONE', #189, #227, #250 ) ;
#89 = COORDINATED_UNIVERSAL_TIME_OFFSET ( 5, 0, .BEHIND. ) ;
#90 = AXIS2_PLACEMENT_3D ( 'NONE', #148, #149, #150 ) ;
#91 = FACE_BOUND ( 'NONE', #140, .T. ) ;
#92 = APPROVAL_PERSON_ORGANIZATION ( #256, #6, #254 ) ;
#93 = PRODUCT_DEFINITION_FORMATION_WITH_SPECIFIED_SOURCE ( 'ANY', '', #122, .NOT_KNOWN. ) ;
#94 = FACE_OUTER_BOUND ( 'NONE', #141, .T. ) ;
#95 = SPHERICAL_SURFACE ( 'NONE', #71, 95.00000000000001400 ) ;
#96 = AXIS2_PLACEMENT_3D ( 'NONE', #191, #197, #233 ) ;
#97 = AXIS2_PLACEMENT_3D ( 'NONE', #180, #185, #147 ) ;
#98 = AXIS2_PLACEMENT_3D ( 'NONE', #213, #202, #215 ) ;
#99 = FACE_OUTER_BOUND ( 'NONE', #179, .T. ) ;
#100 = CYLINDRICAL_SURFACE ( 'NONE', #113, 40.00000000000000000 ) ;
#101 = APPROVAL_PERSON_ORGANIZATION ( #279, #14, #277 ) ;
#102 = CYLINDRICAL_SURFACE ( 'NONE', #67, 21.00000000000000000 ) ;
#103 = AXIS2_PLACEMENT_3D ( 'NONE', #210, #209, #208 ) ;
#104 = CALENDAR_DATE ( 2012, 5, 4 ) ;
#105 = CC_DESIGN_SECURITY_CLASSIFICATION ( #58, ( #93 ) ) ;
#106 = AXIS2_PLACEMENT_3D ( 'NONE', #186, #152, #153 ) ;
#107 = FACE_OUTER_BOUND ( 'NONE', #178, .T. ) ;
#108 = VECTOR ( 'NONE', #230, 1000.000000000000000 ) ;
#109 = VECTOR ( 'NONE', #312, 1000.000000000000000 ) ;
#110 = AXIS2_PLACEMENT_3D ( 'NONE', #151, #184, #183 ) ;
#111 = AXIS2_PLACEMENT_3D ( 'NONE', #306, #305, #304 ) ;
#112 = FACE_OUTER_BOUND ( 'NONE', #214, .T. ) ;
#113 = AXIS2_PLACEMENT_3D ( 'NONE', #229, #190, #193 ) ;
#114 = AXIS2_PLACEMENT_3D ( 'NONE', #232, #235, #168 ) ;
#115 = CC_DESIGN_APPROVAL ( #6, ( #58 ) ) ;
#116 = CYLINDRICAL_SURFACE ( 'NONE', #86, 21.00000000000000000 ) ;
#117 = FACE_OUTER_BOUND ( 'NONE', #132, .T. ) ;
#118 = AXIS2_PLACEMENT_3D ( 'NONE', #162, #160, #159 ) ;
#119 = COORDINATED_UNIVERSAL_TIME_OFFSET ( 5, 0, .BEHIND. ) ;
#120 = AXIS2_PLACEMENT_3D ( 'NONE', #287, #286, #285 ) ;
#121 = AXIS2_PLACEMENT_3D ( 'NONE', #205, #207, #212 ) ;
#122 = PRODUCT ( 'WDS-401-212F', 'WDS-401-212F', '', ( #283 ) ) ;
#123 = APPLICATION_CONTEXT ( 'configuration controlled 3d designs of mechanical parts and assemblies' ) ;
#124 = APPLICATION_CONTEXT ( 'configuration controlled 3d designs of mechanical parts and assemblies' ) ;
#125 = ORIENTED_EDGE ( 'NONE', *, *, #16, .F. ) ;
#126 = ORIENTED_EDGE ( 'NONE', *, *, #17, .F. ) ;
#127 = ORIENTED_EDGE ( 'NONE', *, *, #46, .T. ) ;
#128 = ORIENTED_EDGE ( 'NONE', *, *, #19, .T. ) ;
#129 = ORIENTED_EDGE ( 'NONE', *, *, #44, .T. ) ;
#130 = ORIENTED_EDGE ( 'NONE', *, *, #32, .T. ) ;
#131 = ORIENTED_EDGE ( 'NONE', *, *, #47, .F. ) ;
#132 = EDGE_LOOP ( 'NONE', ( #139, #135, #129, #206, #198 ) ) ;
#133 = ORIENTED_EDGE ( 'NONE', *, *, #18, .T. ) ;
#134 = ORIENTED_EDGE ( 'NONE', *, *, #46, .F. ) ;
#135 = ORIENTED_EDGE ( 'NONE', *, *, #25, .T. ) ;
#136 = EDGE_LOOP ( 'NONE', ( #223, #224, #203, #222, #221 ) ) ;
#137 = ORIENTED_EDGE ( 'NONE', *, *, #40, .T. ) ;
#138 = ORIENTED_EDGE ( 'NONE', *, *, #40, .F. ) ;
#139 = ORIENTED_EDGE ( 'NONE', *, *, #56, .F. ) ;
#140 = EDGE_LOOP ( 'NONE', ( #125, #172 ) ) ;
#141 = EDGE_LOOP ( 'NONE', ( #204, #171, #226, #177, #143 ) ) ;
#142 = CARTESIAN_POINT ( 'NONE',  ( 0.0000000000000000000, 3.184081677783118200E-015, 0.0000000000000000000 ) ) ;
#143 = ORIENTED_EDGE ( 'NONE', *, *, #34, .F. ) ;
#144 = DIRECTION ( 'NONE',  ( 0.0000000000000000000, 0.0000000000000000000, -1.000000000000000000 ) ) ;
#145 = CARTESIAN_POINT ( 'NONE',  ( 0.0000000000000000000, 0.0000000000000000000, 0.0000000000000000000 ) ) ;
#146 = DIRECTION ( 'NONE',  ( -0.0000000000000000000, -1.000000000000000000, -0.0000000000000000000 ) ) ;
#147 = DIRECTION ( 'NONE',  ( 0.0000000000000000000, 0.0000000000000000000, -1.000000000000000000 ) ) ;
#148 = CARTESIAN_POINT ( 'NONE',  ( 0.0000000000000000000, 96.66099929864017800, 0.0000000000000000000 ) ) ;
#149 = DIRECTION ( 'NONE',  ( 0.0000000000000000000, 0.0000000000000000000, -1.000000000000000000 ) ) ;
#150 = DIRECTION ( 'NONE',  ( -1.000000000000000000, 0.0000000000000000000, 0.0000000000000000000 ) ) ;
#151 = CARTESIAN_POINT ( 'NONE',  ( 0.0000000000000000000, 4.011120723436416600, 0.0000000000000000000 ) ) ;
#152 = DIRECTION ( 'NONE',  ( -0.0000000000000000000, -1.000000000000000000, -0.0000000000000000000 ) ) ;
#153 = DIRECTION ( 'NONE',  ( 0.0000000000000000000, 0.0000000000000000000, -1.000000000000000000 ) ) ;
#154 = CARTESIAN_POINT ( 'NONE',  ( 0.0000000000000000000, 0.0000000000000000000, 0.0000000000000000000 ) ) ;
#155 = DIRECTION ( 'NONE',  ( -0.0000000000000000000, -1.000000000000000000, -0.0000000000000000000 ) ) ;
#156 = DIRECTION ( 'NONE',  ( 0.0000000000000000000, 0.0000000000000000000, -1.000000000000000000 ) ) ;
#157 = CARTESIAN_POINT ( 'NONE',  ( 0.0000000000000000000, 0.0000000000000000000, -21.00000000000000000 ) ) ;
#158 = DIRECTION ( 'NONE',  ( -0.0000000000000000000, -1.000000000000000000, -0.0000000000000000000 ) ) ;
#159 = DIRECTION ( 'NONE',  ( 0.0000000000000000000, 0.0000000000000000000, -1.000000000000000000 ) ) ;
#160 = DIRECTION ( 'NONE',  ( -0.0000000000000000000, -1.000000000000000000, -0.0000000000000000000 ) ) ;
#161 = CARTESIAN_POINT ( 'NONE',  ( 0.0000000000000000000, 96.66099929864017800, 0.0000000000000000000 ) ) ;
#162 = CARTESIAN_POINT ( 'NONE',  ( 0.0000000000000000000, 8.572527594031469200E-016, 0.0000000000000000000 ) ) ;
#163 = VERTEX_POINT ( 'NONE', #303 ) ;
#164 = VERTEX_POINT ( 'NONE', #302 ) ;
#165 = VERTEX_POINT ( 'NONE', #301 ) ;
#166 = VERTEX_POINT ( 'NONE', #300 ) ;
#167 = VERTEX_POINT ( 'NONE', #299 ) ;
#168 = DIRECTION ( 'NONE',  ( 1.000000000000000000, 0.0000000000000000000, 0.0000000000000000000 ) ) ;
#169 = ORIENTED_EDGE ( 'NONE', *, *, #34, .T. ) ;
#170 = ORIENTED_EDGE ( 'NONE', *, *, #20, .F. ) ;
#171 = ORIENTED_EDGE ( 'NONE', *, *, #20, .T. ) ;
#172 = ORIENTED_EDGE ( 'NONE', *, *, #44, .F. ) ;
#173 = ORIENTED_EDGE ( 'NONE', *, *, #19, .F. ) ;
#174 = ORIENTED_EDGE ( 'NONE', *, *, #21, .T. ) ;
#175 = ORIENTED_EDGE ( 'NONE', *, *, #29, .F. ) ;
#176 = ORIENTED_EDGE ( 'NONE', *, *, #56, .T. ) ;
#177 = ORIENTED_EDGE ( 'NONE', *, *, #1, .T. ) ;
#178 = EDGE_LOOP ( 'NONE', ( #137, #133 ) ) ;
#179 = EDGE_LOOP ( 'NONE', ( #199, #182, #138, #134 ) ) ;
#180 = CARTESIAN_POINT ( 'NONE',  ( 0.0000000000000000000, 10.40000000000000600, 0.0000000000000000000 ) ) ;
#181 = DIRECTION ( 'NONE',  ( 0.0000000000000000000, 0.0000000000000000000, -1.000000000000000000 ) ) ;
#182 = ORIENTED_EDGE ( 'NONE', *, *, #47, .T. ) ;
#183 = DIRECTION ( 'NONE',  ( 0.0000000000000000000, 0.0000000000000000000, -1.000000000000000000 ) ) ;
#184 = DIRECTION ( 'NONE',  ( -0.0000000000000000000, -1.000000000000000000, -0.0000000000000000000 ) ) ;
#185 = DIRECTION ( 'NONE',  ( -0.0000000000000000000, -1.000000000000000000, -0.0000000000000000000 ) ) ;
#186 = CARTESIAN_POINT ( 'NONE',  ( 0.0000000000000000000, 3.184081677783118200E-015, 0.0000000000000000000 ) ) ;
#187 = LINE ( 'NONE', #157, #62 ) ;
#188 = VERTEX_POINT ( 'NONE', #298 ) ;
#189 = CARTESIAN_POINT ( 'NONE',  ( 0.0000000000000000000, 0.0000000000000000000, 0.0000000000000000000 ) ) ;
#190 = DIRECTION ( 'NONE',  ( -0.0000000000000000000, -1.000000000000000000, -0.0000000000000000000 ) ) ;
#191 = CARTESIAN_POINT ( 'NONE',  ( 0.0000000000000000000, 4.011120723436416600, 0.0000000000000000000 ) ) ;
#192 = CARTESIAN_POINT ( 'NONE',  ( 0.0000000000000000000, 10.40000000000000600, 0.0000000000000000000 ) ) ;
#193 = DIRECTION ( 'NONE',  ( 0.0000000000000000000, 0.0000000000000000000, -1.000000000000000000 ) ) ;
#194 = CARTESIAN_POINT ( 'NONE',  ( 0.0000000000000000000, 96.66099929864017800, 0.0000000000000000000 ) ) ;
#195 = DIRECTION ( 'NONE',  ( 1.224646799147353200E-016, -0.0000000000000000000, 1.000000000000000000 ) ) ;
#196 = DIRECTION ( 'NONE',  ( 1.000000000000000000, 0.0000000000000000000, -1.224646799147353200E-016 ) ) ;
#197 = DIRECTION ( 'NONE',  ( -0.0000000000000000000, -1.000000000000000000, -0.0000000000000000000 ) ) ;
#198 = ORIENTED_EDGE ( 'NONE', *, *, #35, .F. ) ;
#199 = ORIENTED_EDGE ( 'NONE', *, *, #29, .T. ) ;
#200 = EDGE_LOOP ( 'NONE', ( #170, #173, #169, #174, #176 ) ) ;
#201 = EDGE_LOOP ( 'NONE', ( #175, #126 ) ) ;
#202 = DIRECTION ( 'NONE',  ( -0.0000000000000000000, -1.000000000000000000, -0.0000000000000000000 ) ) ;
#203 = ORIENTED_EDGE ( 'NONE', *, *, #1, .F. ) ;
#204 = ORIENTED_EDGE ( 'NONE', *, *, #32, .F. ) ;
#205 = CARTESIAN_POINT ( 'NONE',  ( 0.0000000000000000000, 4.011120723436416600, 0.0000000000000000000 ) ) ;
#206 = ORIENTED_EDGE ( 'NONE', *, *, #43, .F. ) ;
#207 = DIRECTION ( 'NONE',  ( -0.0000000000000000000, -1.000000000000000000, -0.0000000000000000000 ) ) ;
#208 = DIRECTION ( 'NONE',  ( 0.0000000000000000000, 0.0000000000000000000, -1.000000000000000000 ) ) ;
#209 = DIRECTION ( 'NONE',  ( 0.0000000000000000000, -1.000000000000000000, -0.0000000000000000000 ) ) ;
#210 = CARTESIAN_POINT ( 'NONE',  ( 40.00000000000000000, 2.020667218593132700E-015, 0.0000000000000000000 ) ) ;
#211 = PLANE ( 'NONE',  #103 ) ;
#212 = DIRECTION ( 'NONE',  ( 0.0000000000000000000, 0.0000000000000000000, -1.000000000000000000 ) ) ;
#213 = CARTESIAN_POINT ( 'NONE',  ( 0.0000000000000000000, 8.572527594031469200E-016, 0.0000000000000000000 ) ) ;
#214 = EDGE_LOOP ( 'NONE', ( #131, #243, #127, #225 ) ) ;
#215 = DIRECTION ( 'NONE',  ( 0.0000000000000000000, 0.0000000000000000000, -1.000000000000000000 ) ) ;
#216 = CARTESIAN_POINT ( 'NONE',  ( 0.0000000000000000000, 10.40000000000000600, 0.0000000000000000000 ) ) ;
#217 = DIRECTION ( 'NONE',  ( -0.0000000000000000000, -1.000000000000000000, -0.0000000000000000000 ) ) ;
#218 = DIRECTION ( 'NONE',  ( 0.0000000000000000000, 0.0000000000000000000, -1.000000000000000000 ) ) ;
#219 = DIRECTION ( 'NONE',  ( 0.0000000000000000000, 0.0000000000000000000, -1.000000000000000000 ) ) ;
#220 = DIRECTION ( 'NONE',  ( -0.0000000000000000000, -1.000000000000000000, -0.0000000000000000000 ) ) ;
#221 = ORIENTED_EDGE ( 'NONE', *, *, #16, .T. ) ;
#222 = ORIENTED_EDGE ( 'NONE', *, *, #43, .T. ) ;
#223 = ORIENTED_EDGE ( 'NONE', *, *, #25, .F. ) ;
#224 = ORIENTED_EDGE ( 'NONE', *, *, #21, .F. ) ;
#225 = ORIENTED_EDGE ( 'NONE', *, *, #18, .F. ) ;
#226 = ORIENTED_EDGE ( 'NONE', *, *, #35, .T. ) ;
#227 = DIRECTION ( 'NONE',  ( -0.0000000000000000000, -1.000000000000000000, -0.0000000000000000000 ) ) ;
#228 = LINE ( 'NONE', #231, #108 ) ;
#229 = CARTESIAN_POINT ( 'NONE',  ( 0.0000000000000000000, 0.0000000000000000000, 0.0000000000000000000 ) ) ;
#230 = DIRECTION ( 'NONE',  ( -0.0000000000000000000, -1.000000000000000000, -0.0000000000000000000 ) ) ;
#231 = CARTESIAN_POINT ( 'NONE',  ( 2.571758278209441700E-015, 0.0000000000000000000, 21.00000000000000000 ) ) ;
#232 = CARTESIAN_POINT ( 'NONE',  ( 0.0000000000000000000, 96.66099929864017800, 0.0000000000000000000 ) ) ;
#233 = DIRECTION ( 'NONE',  ( 0.0000000000000000000, 0.0000000000000000000, -1.000000000000000000 ) ) ;
#234 = VERTEX_POINT ( 'NONE', #297 ) ;
#235 = DIRECTION ( 'NONE',  ( 0.0000000000000000000, 0.0000000000000000000, 1.000000000000000000 ) ) ;
#236 = VERTEX_POINT ( 'NONE', #296 ) ;
#237 = VERTEX_POINT ( 'NONE', #295 ) ;
#238 = VERTEX_POINT ( 'NONE', #294 ) ;
#239 = EDGE_LOOP ( 'NONE', ( #128, #130 ) ) ;
#240 = VERTEX_POINT ( 'NONE', #293 ) ;
#241 = VERTEX_POINT ( 'NONE', #292 ) ;
#242 = CARTESIAN_POINT ( 'NONE',  ( 0.0000000000000000000, 10.40000000000000600, 0.0000000000000000000 ) ) ;
#243 = ORIENTED_EDGE ( 'NONE', *, *, #17, .T. ) ;
#244 = DIRECTION ( 'NONE',  ( 0.0000000000000000000, 0.0000000000000000000, -1.000000000000000000 ) ) ;
#245 = DIRECTION ( 'NONE',  ( -0.0000000000000000000, -1.000000000000000000, -0.0000000000000000000 ) ) ;
#246 = CARTESIAN_POINT ( 'NONE',  ( 39.80000000000000400, 10.40000000000000600, 0.0000000000000000000 ) ) ;
#247 = DIRECTION ( 'NONE',  ( 0.0000000000000000000, 0.0000000000000000000, -1.000000000000000000 ) ) ;
#248 = DIRECTION ( 'NONE',  ( -0.0000000000000000000, -1.000000000000000000, -0.0000000000000000000 ) ) ;
#249 = DIRECTION ( 'NONE',  ( 0.0000000000000000000, -1.000000000000000000, -0.0000000000000000000 ) ) ;
#250 = DIRECTION ( 'NONE',  ( 0.0000000000000000000, 0.0000000000000000000, -1.000000000000000000 ) ) ;
#251 = PLANE ( 'NONE',  #66 ) ;
#252 = APPROVAL_DATE_TIME ( #253, #6 ) ;
#253 = DATE_AND_TIME ( #59, #5 ) ;
#254 = APPROVAL_ROLE ( '' ) ;
#255 = APPROVAL_STATUS ( 'not_yet_approved' ) ;
#256 = PERSON_AND_ORGANIZATION ( #316, #61 ) ;
#257 = DATE_TIME_ROLE ( 'classification_date' ) ;
#258 = DATE_AND_TIME ( #104, #8 ) ;
#259 = PERSON_AND_ORGANIZATION_ROLE ( 'classification_officer' ) ;
#260 = PERSON_AND_ORGANIZATION ( #316, #61 ) ;
#261 = SECURITY_CLASSIFICATION_LEVEL ( 'unclassified' ) ;
#262 = PERSON_AND_ORGANIZATION_ROLE ( 'design_supplier' ) ;
#263 = PERSON_AND_ORGANIZATION ( #316, #61 ) ;
#264 = PERSON_AND_ORGANIZATION_ROLE ( 'creator' ) ;
#265 = PERSON_AND_ORGANIZATION ( #316, #61 ) ;
#266 = APPROVAL_DATE_TIME ( #267, #52 ) ;
#267 = DATE_AND_TIME ( #60, #53 ) ;
#268 = APPROVAL_ROLE ( '' ) ;
#269 = APPROVAL_STATUS ( 'not_yet_approved' ) ;
#270 = PERSON_AND_ORGANIZATION ( #316, #61 ) ;
#271 = DATE_TIME_ROLE ( 'creation_date' ) ;
#272 = DATE_AND_TIME ( #68, #49 ) ;
#273 = PERSON_AND_ORGANIZATION_ROLE ( 'creator' ) ;
#274 = PERSON_AND_ORGANIZATION ( #316, #61 ) ;
#275 = APPROVAL_DATE_TIME ( #276, #14 ) ;
#276 = DATE_AND_TIME ( #74, #12 ) ;
#277 = APPROVAL_ROLE ( '' ) ;
#278 = APPROVAL_STATUS ( 'not_yet_approved' ) ;
#279 = PERSON_AND_ORGANIZATION ( #316, #61 ) ;
#280 = APPLICATION_PROTOCOL_DEFINITION ( 'international standard', 'config_control_design', 1994, #123 ) ;
#281 = PERSON_AND_ORGANIZATION_ROLE ( 'design_owner' ) ;
#282 = PERSON_AND_ORGANIZATION ( #316, #61 ) ;
#283 = MECHANICAL_CONTEXT ( 'NONE', #124, 'mechanical' ) ;
#284 = APPLICATION_PROTOCOL_DEFINITION ( 'international standard', 'config_control_design', 1994, #124 ) ;
#285 = DIRECTION ( 'NONE',  ( 1.000000000000000000, 0.0000000000000000000, 0.0000000000000000000 ) ) ;
#286 = DIRECTION ( 'NONE',  ( 0.0000000000000000000, 0.0000000000000000000, 1.000000000000000000 ) ) ;
#287 = CARTESIAN_POINT ( 'NONE',  ( 0.0000000000000000000, 0.0000000000000000000, 0.0000000000000000000 ) ) ;
#288 = SHAPE_DEFINITION_REPRESENTATION ( #319, #318 ) ;
#289 =( NAMED_UNIT ( * ) SI_UNIT ( $, .STERADIAN. ) SOLID_ANGLE_UNIT ( ) );
#290 =( NAMED_UNIT ( * ) PLANE_ANGLE_UNIT ( ) SI_UNIT ( $, .RADIAN. ) );
#291 =( LENGTH_UNIT ( ) NAMED_UNIT ( * ) SI_UNIT ( .MILLI., .METRE. ) );
#292 = CARTESIAN_POINT ( 'NONE',  ( 0.0000000000000000000, 8.572527594031469200E-016, -21.00000000000000000 ) ) ;
#293 = CARTESIAN_POINT ( 'NONE',  ( 4.898587196589413000E-015, 10.40000000000000600, 40.00000000000000000 ) ) ;
#294 = CARTESIAN_POINT ( 'NONE',  ( 0.0000000000000000000, 4.011120723436416600, -21.00000000000000400 ) ) ;
#295 = CARTESIAN_POINT ( 'NONE',  ( 2.571758278209442100E-015, 4.011120723436416600, 21.00000000000000400 ) ) ;
#296 = CARTESIAN_POINT ( 'NONE',  ( 21.00000000000000400, 4.011120723436416600, 0.0000000000000000000 ) ) ;
#297 = CARTESIAN_POINT ( 'NONE',  ( 0.0000000000000000000, 3.184081677783118200E-015, -40.00000000000000000 ) ) ;
#298 = CARTESIAN_POINT ( 'NONE',  ( -21.00000000000000400, 4.011120723436416600, 3.722926269407954200E-015 ) ) ;
#299 = CARTESIAN_POINT ( 'NONE',  ( 2.571758278209441700E-015, 8.572527594031469200E-016, 21.00000000000000000 ) ) ;
#300 = CARTESIAN_POINT ( 'NONE',  ( 4.898587196589413000E-015, 3.184081677783118200E-015, 40.00000000000000000 ) ) ;
#301 = CARTESIAN_POINT ( 'NONE',  ( 39.80000000000001800, 10.40000000000000600, 0.0000000000000000000 ) ) ;
#302 = CARTESIAN_POINT ( 'NONE',  ( 0.0000000000000000000, 10.40000000000000600, -40.00000000000000000 ) ) ;
#303 = CARTESIAN_POINT ( 'NONE',  ( -39.80000000000001800, 10.40000000000000600, 4.874094260606468700E-015 ) ) ;
#304 = DIRECTION ( 'NONE',  ( 0.0000000000000000000, 0.0000000000000000000, -1.000000000000000000 ) ) ;
#305 = DIRECTION ( 'NONE',  ( -0.0000000000000000000, -1.000000000000000000, -0.0000000000000000000 ) ) ;
#306 = CARTESIAN_POINT ( 'NONE',  ( 0.0000000000000000000, 4.011120723436416600, 0.0000000000000000000 ) ) ;
#307 = DIRECTION ( 'NONE',  ( 1.000000000000000000, 0.0000000000000000000, 0.0000000000000000000 ) ) ;
#308 = DIRECTION ( 'NONE',  ( 0.0000000000000000000, 0.0000000000000000000, 1.000000000000000000 ) ) ;
#309 = DIRECTION ( 'NONE',  ( -0.0000000000000000000, -1.000000000000000000, -0.0000000000000000000 ) ) ;
#310 = CARTESIAN_POINT ( 'NONE',  ( 4.898587196589413000E-015, 0.0000000000000000000, 40.00000000000000000 ) ) ;
#311 = LINE ( 'NONE', #310, #87 ) ;
#312 = DIRECTION ( 'NONE',  ( -0.0000000000000000000, -1.000000000000000000, -0.0000000000000000000 ) ) ;
#313 = CARTESIAN_POINT ( 'NONE',  ( 0.0000000000000000000, 0.0000000000000000000, -40.00000000000000000 ) ) ;
#314 = LINE ( 'NONE', #313, #109 ) ;
#315 =( GEOMETRIC_REPRESENTATION_CONTEXT ( 3 ) GLOBAL_UNCERTAINTY_ASSIGNED_CONTEXT ( ( #317 ) ) GLOBAL_UNIT_ASSIGNED_CONTEXT ( ( #291, #290, #289 ) ) REPRESENTATION_CONTEXT ( 'NONE', 'WORKASPACE' ) );
#316 = PERSON ( 'UNSPECIFIED', 'UNSPECIFIED', 'UNSPECIFIED', ('UNSPECIFIED'), ('UNSPECIFIED'), ('UNSPECIFIED') ) ;
#317 = UNCERTAINTY_MEASURE_WITH_UNIT (LENGTH_MEASURE( 1.000000000000000100E-005 ), #291, 'distance_accuracy_value', 'NONE');
#318 = ADVANCED_BREP_SHAPE_REPRESENTATION ( 'WDS-401-212F', ( #320, #120 ), #315 ) ;
#319 = PRODUCT_DEFINITION_SHAPE ( 'NONE', 'NONE',  #15 ) ;
#320 = MANIFOLD_SOLID_BREP ( 'Cut-Revolve1', #81 ) ;
#321 = DESIGN_CONTEXT ( 'detailed design', #123, 'design' ) ;
ENDSEC;
END-ISO-10303-21;
