ISO-10303-21;
HEADER;
FILE_DESCRIPTION (( 'STEP AP203' ),
    '1' );
FILE_NAME ('WDS-401-208F.step',
    '2012-04-05T10:04:34',
    ( 'SysAdmin' ),
    ( 'SolidWorks' ),
    'SwSTEP 2.0',
    'SolidWorks 2012',
    '' );
FILE_SCHEMA (( 'CONFIG_CONTROL_DESIGN' ));
ENDSEC;

DATA;
#1 = AXIS2_PLACEMENT_3D ( 'NONE', #93, #92, #91 ) ;
#2 = CYLINDRICAL_SURFACE ( 'NONE', #1, 12.75000000000000000 ) ;
#3 = ADVANCED_BREP_SHAPE_REPRESENTATION ( 'WDS-401-208F', ( #317, #62 ), #4 ) ;
#4 =( GEOMETRIC_REPRESENTATION_CONTEXT ( 3 ) GLOBAL_UNCERTAINTY_ASSIGNED_CONTEXT ( ( #5 ) ) GLOBAL_UNIT_ASSIGNED_CONTEXT ( ( #8, #7, #6 ) ) REPRESENTATION_CONTEXT ( 'NONE', 'WORKASPACE' ) );
#5 = UNCERTAINTY_MEASURE_WITH_UNIT (LENGTH_MEASURE( 1.000000000000000100E-005 ), #8, 'distance_accuracy_value', 'NONE');
#6 =( NAMED_UNIT ( * ) SI_UNIT ( $, .STERADIAN. ) SOLID_ANGLE_UNIT ( ) );
#7 =( NAMED_UNIT ( * ) PLANE_ANGLE_UNIT ( ) SI_UNIT ( $, .RADIAN. ) );
#8 =( LENGTH_UNIT ( ) NAMED_UNIT ( * ) SI_UNIT ( .MILLI., .METRE. ) );
#9 = DIRECTION ( 'NONE',  ( 1.000000000000000000, 0.0000000000000000000, 0.0000000000000000000 ) ) ;
#10 = DIRECTION ( 'NONE',  ( 0.0000000000000000000, 0.0000000000000000000, 1.000000000000000000 ) ) ;
#11 = CARTESIAN_POINT ( 'NONE',  ( 0.0000000000000000000, 60.59343587753182400, 0.0000000000000000000 ) ) ;
#12 = DIRECTION ( 'NONE',  ( 0.0000000000000000000, 0.0000000000000000000, -1.000000000000000000 ) ) ;
#13 = DIRECTION ( 'NONE',  ( -0.0000000000000000000, -1.000000000000000000, -0.0000000000000000000 ) ) ;
#14 = CARTESIAN_POINT ( 'NONE',  ( 0.0000000000000000000, 8.800000000000002500, 0.0000000000000000000 ) ) ;
#15 = CIRCLE ( 'NONE', #71, 23.80000000000000100 ) ;
#16 = DIRECTION ( 'NONE',  ( 0.0000000000000000000, 0.0000000000000000000, -1.000000000000000000 ) ) ;
#17 = SECURITY_CLASSIFICATION_LEVEL ( 'unclassified' ) ;
#18 = CC_DESIGN_PERSON_AND_ORGANIZATION_ASSIGNMENT ( #20, #19, ( #35 ) ) ;
#19 = PERSON_AND_ORGANIZATION_ROLE ( 'design_supplier' ) ;
#20 = PERSON_AND_ORGANIZATION ( #124, #123 ) ;
#21 = CC_DESIGN_PERSON_AND_ORGANIZATION_ASSIGNMENT ( #23, #22, ( #35 ) ) ;
#22 = PERSON_AND_ORGANIZATION_ROLE ( 'creator' ) ;
#23 = PERSON_AND_ORGANIZATION ( #124, #123 ) ;
#24 = CC_DESIGN_APPROVAL ( #32, ( #35 ) ) ;
#25 = APPROVAL_DATE_TIME ( #26, #32 ) ;
#26 = DATE_AND_TIME ( #27, #28 ) ;
#27 = CALENDAR_DATE ( 2012, 5, 4 ) ;
#28 = LOCAL_TIME ( 6, 4, 34.00000000000000000, #29 ) ;
#29 = COORDINATED_UNIVERSAL_TIME_OFFSET ( 5, 0, .BEHIND. ) ;
#30 = APPROVAL_PERSON_ORGANIZATION ( #34, #32, #31 ) ;
#31 = APPROVAL_ROLE ( '' ) ;
#32 = APPROVAL ( #33, 'UNSPECIFIED' ) ;
#33 = APPROVAL_STATUS ( 'not_yet_approved' ) ;
#34 = PERSON_AND_ORGANIZATION ( #124, #123 ) ;
#35 = PRODUCT_DEFINITION_FORMATION_WITH_SPECIFIED_SOURCE ( 'ANY', '', #125, .NOT_KNOWN. ) ;
#36 = SHAPE_DEFINITION_REPRESENTATION ( #94, #3 ) ;
#37 = CC_DESIGN_DATE_AND_TIME_ASSIGNMENT ( #39, #38, ( #57 ) ) ;
#38 = DATE_TIME_ROLE ( 'creation_date' ) ;
#39 = DATE_AND_TIME ( #40, #41 ) ;
#40 = CALENDAR_DATE ( 2012, 5, 4 ) ;
#41 = LOCAL_TIME ( 6, 4, 34.00000000000000000, #42 ) ;
#42 = COORDINATED_UNIVERSAL_TIME_OFFSET ( 5, 0, .BEHIND. ) ;
#43 = CC_DESIGN_PERSON_AND_ORGANIZATION_ASSIGNMENT ( #45, #44, ( #57 ) ) ;
#44 = PERSON_AND_ORGANIZATION_ROLE ( 'creator' ) ;
#45 = PERSON_AND_ORGANIZATION ( #124, #123 ) ;
#46 = CC_DESIGN_APPROVAL ( #54, ( #57 ) ) ;
#47 = APPROVAL_DATE_TIME ( #48, #54 ) ;
#48 = DATE_AND_TIME ( #49, #50 ) ;
#49 = CALENDAR_DATE ( 2012, 5, 4 ) ;
#50 = LOCAL_TIME ( 6, 4, 34.00000000000000000, #51 ) ;
#51 = COORDINATED_UNIVERSAL_TIME_OFFSET ( 5, 0, .BEHIND. ) ;
#52 = APPROVAL_PERSON_ORGANIZATION ( #56, #54, #53 ) ;
#53 = APPROVAL_ROLE ( '' ) ;
#54 = APPROVAL ( #55, 'UNSPECIFIED' ) ;
#55 = APPROVAL_STATUS ( 'not_yet_approved' ) ;
#56 = PERSON_AND_ORGANIZATION ( #124, #123 ) ;
#57 = PRODUCT_DEFINITION ( 'UNKNOWN', '', #35, #58 ) ;
#58 = DESIGN_CONTEXT ( 'detailed design', #119, 'design' ) ;
#59 = DIRECTION ( 'NONE',  ( 1.000000000000000000, 0.0000000000000000000, 0.0000000000000000000 ) ) ;
#60 = DIRECTION ( 'NONE',  ( 0.0000000000000000000, 0.0000000000000000000, 1.000000000000000000 ) ) ;
#61 = CARTESIAN_POINT ( 'NONE',  ( 0.0000000000000000000, 0.0000000000000000000, 0.0000000000000000000 ) ) ;
#62 = AXIS2_PLACEMENT_3D ( 'NONE', #61, #60, #59 ) ;
#63 = APPLICATION_CONTEXT ( 'configuration controlled 3d designs of mechanical parts and assemblies' ) ;
#64 = DIRECTION ( 'NONE',  ( 0.0000000000000000000, -1.000000000000000000, -0.0000000000000000000 ) ) ;
#65 = FACE_OUTER_BOUND ( 'NONE', #176, .T. ) ;
#66 = PLANE ( 'NONE',  #77 ) ;
#67 = AXIS2_PLACEMENT_3D ( 'NONE', #11, #10, #9 ) ;
#68 = DIRECTION ( 'NONE',  ( 1.000000000000000000, 0.0000000000000000000, -1.224646799147353200E-016 ) ) ;
#69 = DIRECTION ( 'NONE',  ( 1.224646799147353200E-016, -0.0000000000000000000, 1.000000000000000000 ) ) ;
#70 = CARTESIAN_POINT ( 'NONE',  ( 0.0000000000000000000, 60.59343587753182400, 0.0000000000000000000 ) ) ;
#71 = AXIS2_PLACEMENT_3D ( 'NONE', #14, #13, #12 ) ;
#72 = FACE_OUTER_BOUND ( 'NONE', #304, .T. ) ;
#73 = DIRECTION ( 'NONE',  ( 0.0000000000000000000, 0.0000000000000000000, -1.000000000000000000 ) ) ;
#74 = DIRECTION ( 'NONE',  ( -0.0000000000000000000, -1.000000000000000000, -0.0000000000000000000 ) ) ;
#75 = CARTESIAN_POINT ( 'NONE',  ( 0.0000000000000000000, 0.0000000000000000000, 0.0000000000000000000 ) ) ;
#76 = CARTESIAN_POINT ( 'NONE',  ( -12.75000000000000200, 5.037720599983645200, 2.238042025441788100E-015 ) ) ;
#77 = AXIS2_PLACEMENT_3D ( 'NONE', #88, #64, #16 ) ;
#78 = FACE_BOUND ( 'NONE', #311, .T. ) ;
#79 = AXIS2_PLACEMENT_3D ( 'NONE', #75, #74, #73 ) ;
#80 = SPHERICAL_SURFACE ( 'NONE', #67, 57.00000000000000700 ) ;
#81 = DIRECTION ( 'NONE',  ( 0.0000000000000000000, 0.0000000000000000000, -1.000000000000000000 ) ) ;
#82 = DIRECTION ( 'NONE',  ( -0.0000000000000000000, -1.000000000000000000, -0.0000000000000000000 ) ) ;
#83 = CARTESIAN_POINT ( 'NONE',  ( 0.0000000000000000000, 8.800000000000002500, 0.0000000000000000000 ) ) ;
#84 = CIRCLE ( 'NONE', #87, 24.00000000000000000 ) ;
#85 = CIRCLE ( 'NONE', #90, 57.00000000000000700 ) ;
#86 = FACE_OUTER_BOUND ( 'NONE', #193, .T. ) ;
#87 = AXIS2_PLACEMENT_3D ( 'NONE', #83, #82, #81 ) ;
#88 = CARTESIAN_POINT ( 'NONE',  ( 23.80000000000000100, 8.800000000000002500, 0.0000000000000000000 ) ) ;
#89 = CYLINDRICAL_SURFACE ( 'NONE', #79, 24.00000000000000000 ) ;
#90 = AXIS2_PLACEMENT_3D ( 'NONE', #70, #69, #68 ) ;
#91 = DIRECTION ( 'NONE',  ( 0.0000000000000000000, 0.0000000000000000000, -1.000000000000000000 ) ) ;
#92 = DIRECTION ( 'NONE',  ( -0.0000000000000000000, -1.000000000000000000, -0.0000000000000000000 ) ) ;
#93 = CARTESIAN_POINT ( 'NONE',  ( 0.0000000000000000000, 0.0000000000000000000, 0.0000000000000000000 ) ) ;
#94 = PRODUCT_DEFINITION_SHAPE ( 'NONE', 'NONE',  #57 ) ;
#95 = PRODUCT_RELATED_PRODUCT_CATEGORY ( 'detail', '', ( #125 ) ) ;
#96 = CC_DESIGN_SECURITY_CLASSIFICATION ( #117, ( #35 ) ) ;
#97 = CC_DESIGN_APPROVAL ( #105, ( #117 ) ) ;
#98 = APPROVAL_DATE_TIME ( #99, #105 ) ;
#99 = DATE_AND_TIME ( #100, #101 ) ;
#100 = CALENDAR_DATE ( 2012, 5, 4 ) ;
#101 = LOCAL_TIME ( 6, 4, 34.00000000000000000, #102 ) ;
#102 = COORDINATED_UNIVERSAL_TIME_OFFSET ( 5, 0, .BEHIND. ) ;
#103 = APPROVAL_PERSON_ORGANIZATION ( #107, #105, #104 ) ;
#104 = APPROVAL_ROLE ( '' ) ;
#105 = APPROVAL ( #106, 'UNSPECIFIED' ) ;
#106 = APPROVAL_STATUS ( 'not_yet_approved' ) ;
#107 = PERSON_AND_ORGANIZATION ( #124, #123 ) ;
#108 = CC_DESIGN_DATE_AND_TIME_ASSIGNMENT ( #110, #109, ( #117 ) ) ;
#109 = DATE_TIME_ROLE ( 'classification_date' ) ;
#110 = DATE_AND_TIME ( #111, #112 ) ;
#111 = CALENDAR_DATE ( 2012, 5, 4 ) ;
#112 = LOCAL_TIME ( 6, 4, 34.00000000000000000, #113 ) ;
#113 = COORDINATED_UNIVERSAL_TIME_OFFSET ( 5, 0, .BEHIND. ) ;
#114 = CC_DESIGN_PERSON_AND_ORGANIZATION_ASSIGNMENT ( #116, #115, ( #117 ) ) ;
#115 = PERSON_AND_ORGANIZATION_ROLE ( 'classification_officer' ) ;
#116 = PERSON_AND_ORGANIZATION ( #124, #123 ) ;
#117 = SECURITY_CLASSIFICATION ( '', '', #17 ) ;
#118 = APPLICATION_PROTOCOL_DEFINITION ( 'international standard', 'config_control_design', 1994, #119 ) ;
#119 = APPLICATION_CONTEXT ( 'configuration controlled 3d designs of mechanical parts and assemblies' ) ;
#120 = CC_DESIGN_PERSON_AND_ORGANIZATION_ASSIGNMENT ( #122, #121, ( #125 ) ) ;
#121 = PERSON_AND_ORGANIZATION_ROLE ( 'design_owner' ) ;
#122 = PERSON_AND_ORGANIZATION ( #124, #123 ) ;
#123 = ORGANIZATION ( 'UNSPECIFIED', 'UNSPECIFIED', '' ) ;
#124 = PERSON ( 'UNSPECIFIED', 'UNSPECIFIED', 'UNSPECIFIED', ('UNSPECIFIED'), ('UNSPECIFIED'), ('UNSPECIFIED') ) ;
#125 = PRODUCT ( 'WDS-401-208F', 'WDS-401-208F', '', ( #126 ) ) ;
#126 = MECHANICAL_CONTEXT ( 'NONE', #63, 'mechanical' ) ;
#127 = APPLICATION_PROTOCOL_DEFINITION ( 'international standard', 'config_control_design', 1994, #63 ) ;
#128 = FACE_OUTER_BOUND ( 'NONE', #196, .T. ) ;
#129 = CARTESIAN_POINT ( 'NONE',  ( 23.80000000000000100, 8.800000000000002500, 0.0000000000000000000 ) ) ;
#130 = DIRECTION ( 'NONE',  ( -0.0000000000000000000, -1.000000000000000000, -0.0000000000000000000 ) ) ;
#131 = VECTOR ( 'NONE', #130, 1000.000000000000000 ) ;
#132 = CARTESIAN_POINT ( 'NONE',  ( 2.939152317953647900E-015, 0.0000000000000000000, 24.00000000000000000 ) ) ;
#133 = LINE ( 'NONE', #132, #131 ) ;
#134 = CIRCLE ( 'NONE', #145, 57.00000000000000700 ) ;
#135 = DIRECTION ( 'NONE',  ( 0.0000000000000000000, 0.0000000000000000000, -1.000000000000000000 ) ) ;
#136 = DIRECTION ( 'NONE',  ( -0.0000000000000000000, -1.000000000000000000, -0.0000000000000000000 ) ) ;
#137 = CARTESIAN_POINT ( 'NONE',  ( 0.0000000000000000000, 5.037720599983645200, 0.0000000000000000000 ) ) ;
#138 = CARTESIAN_POINT ( 'NONE',  ( 2.939152317953647900E-015, 1.224646799147352900E-015, 24.00000000000000000 ) ) ;
#139 = CIRCLE ( 'NONE', #147, 12.75000000000000200 ) ;
#140 = DIRECTION ( 'NONE',  ( 0.0000000000000000000, 0.0000000000000000000, -1.000000000000000000 ) ) ;
#141 = DIRECTION ( 'NONE',  ( -0.0000000000000000000, -1.000000000000000000, -0.0000000000000000000 ) ) ;
#142 = CARTESIAN_POINT ( 'NONE',  ( 0.0000000000000000000, 5.037720599983645200, 0.0000000000000000000 ) ) ;
#143 = AXIS2_PLACEMENT_3D ( 'NONE', #142, #141, #140 ) ;
#144 = CARTESIAN_POINT ( 'NONE',  ( 12.75000000000000200, 5.037720599983645200, 0.0000000000000000000 ) ) ;
#145 = AXIS2_PLACEMENT_3D ( 'NONE', #190, #189, #188 ) ;
#146 = DIRECTION ( 'NONE',  ( 0.0000000000000000000, 0.0000000000000000000, -1.000000000000000000 ) ) ;
#147 = AXIS2_PLACEMENT_3D ( 'NONE', #137, #136, #135 ) ;
#148 = CARTESIAN_POINT ( 'NONE',  ( 0.0000000000000000000, 5.037720599983645200, -12.75000000000000200 ) ) ;
#149 = AXIS2_PLACEMENT_3D ( 'NONE', #270, #269, #146 ) ;
#150 = DIRECTION ( 'NONE',  ( 0.0000000000000000000, 0.0000000000000000000, -1.000000000000000000 ) ) ;
#151 = DIRECTION ( 'NONE',  ( -0.0000000000000000000, -1.000000000000000000, -0.0000000000000000000 ) ) ;
#152 = CIRCLE ( 'NONE', #214, 24.00000000000000000 ) ;
#153 = DIRECTION ( 'NONE',  ( -0.0000000000000000000, -1.000000000000000000, -0.0000000000000000000 ) ) ;
#154 = VECTOR ( 'NONE', #153, 1000.000000000000000 ) ;
#155 = CARTESIAN_POINT ( 'NONE',  ( 0.0000000000000000000, 0.0000000000000000000, -12.75000000000000000 ) ) ;
#156 = LINE ( 'NONE', #155, #154 ) ;
#157 = CIRCLE ( 'NONE', #206, 12.75000000000000200 ) ;
#158 = DIRECTION ( 'NONE',  ( 0.0000000000000000000, 0.0000000000000000000, -1.000000000000000000 ) ) ;
#159 = DIRECTION ( 'NONE',  ( -0.0000000000000000000, -1.000000000000000000, -0.0000000000000000000 ) ) ;
#160 = CIRCLE ( 'NONE', #164, 12.75000000000000000 ) ;
#161 = DIRECTION ( 'NONE',  ( 0.0000000000000000000, 0.0000000000000000000, -1.000000000000000000 ) ) ;
#162 = DIRECTION ( 'NONE',  ( -0.0000000000000000000, -1.000000000000000000, -0.0000000000000000000 ) ) ;
#163 = CARTESIAN_POINT ( 'NONE',  ( 0.0000000000000000000, 5.037720599983645200, 0.0000000000000000000 ) ) ;
#164 = AXIS2_PLACEMENT_3D ( 'NONE', #179, #159, #158 ) ;
#165 = CIRCLE ( 'NONE', #221, 12.75000000000000200 ) ;
#166 = DIRECTION ( 'NONE',  ( -0.0000000000000000000, -1.000000000000000000, -0.0000000000000000000 ) ) ;
#167 = VECTOR ( 'NONE', #166, 1000.000000000000000 ) ;
#168 = CARTESIAN_POINT ( 'NONE',  ( 1.561424668912875100E-015, 0.0000000000000000000, 12.75000000000000000 ) ) ;
#169 = LINE ( 'NONE', #168, #167 ) ;
#170 = DIRECTION ( 'NONE',  ( 0.0000000000000000000, 0.0000000000000000000, -1.000000000000000000 ) ) ;
#171 = DIRECTION ( 'NONE',  ( -0.0000000000000000000, -1.000000000000000000, -0.0000000000000000000 ) ) ;
#172 = CARTESIAN_POINT ( 'NONE',  ( 0.0000000000000000000, 0.0000000000000000000, 0.0000000000000000000 ) ) ;
#173 = AXIS2_PLACEMENT_3D ( 'NONE', #172, #171, #170 ) ;
#174 = CARTESIAN_POINT ( 'NONE',  ( 0.0000000000000000000, -1.530808498934195800E-016, -12.75000000000000000 ) ) ;
#175 = CLOSED_SHELL ( 'NONE', ( #249, #254, #283, #194, #204, #290, #316, #310 ) ) ;
#176 = EDGE_LOOP ( 'NONE', ( #301, #305, #303, #308, #302 ) ) ;
#177 = FACE_BOUND ( 'NONE', #200, .T. ) ;
#178 = CIRCLE ( 'NONE', #187, 24.00000000000000000 ) ;
#179 = CARTESIAN_POINT ( 'NONE',  ( 0.0000000000000000000, -1.530808498934195800E-016, 0.0000000000000000000 ) ) ;
#180 = CARTESIAN_POINT ( 'NONE',  ( 0.0000000000000000000, 8.800000000000002500, 0.0000000000000000000 ) ) ;
#181 = DIRECTION ( 'NONE',  ( 0.0000000000000000000, 0.0000000000000000000, -1.000000000000000000 ) ) ;
#182 = DIRECTION ( 'NONE',  ( -0.0000000000000000000, -1.000000000000000000, -0.0000000000000000000 ) ) ;
#183 = CARTESIAN_POINT ( 'NONE',  ( 0.0000000000000000000, 8.800000000000002500, 0.0000000000000000000 ) ) ;
#184 = AXIS2_PLACEMENT_3D ( 'NONE', #183, #182, #181 ) ;
#185 = CIRCLE ( 'NONE', #184, 23.80000000000000100 ) ;
#186 = CARTESIAN_POINT ( 'NONE',  ( -23.80000000000000100, 8.800000000000002500, 2.914659381970700800E-015 ) ) ;
#187 = AXIS2_PLACEMENT_3D ( 'NONE', #180, #230, #229 ) ;
#188 = DIRECTION ( 'NONE',  ( -1.000000000000000000, 0.0000000000000000000, 0.0000000000000000000 ) ) ;
#189 = DIRECTION ( 'NONE',  ( 0.0000000000000000000, 0.0000000000000000000, -1.000000000000000000 ) ) ;
#190 = CARTESIAN_POINT ( 'NONE',  ( 0.0000000000000000000, 60.59343587753182400, 0.0000000000000000000 ) ) ;
#191 = CYLINDRICAL_SURFACE ( 'NONE', #173, 24.00000000000000000 ) ;
#192 = CARTESIAN_POINT ( 'NONE',  ( 1.561424668912875500E-015, 5.037720599983645200, 12.75000000000000200 ) ) ;
#193 = EDGE_LOOP ( 'NONE', ( #298, #289, #292, #291 ) ) ;
#194 = ADVANCED_FACE ( 'NONE', ( #276, #177 ), #315, .T. ) ;
#195 = EDGE_LOOP ( 'NONE', ( #205, #296, #203, #297, #295 ) ) ;
#196 = EDGE_LOOP ( 'NONE', ( #287, #233, #251, #238, #241 ) ) ;
#197 = ORIENTED_EDGE ( 'NONE', *, *, #247, .T. ) ;
#198 = EDGE_CURVE ( 'NONE', #257, #258, #248, .T. ) ;
#199 = ORIENTED_EDGE ( 'NONE', *, *, #253, .T. ) ;
#200 = EDGE_LOOP ( 'NONE', ( #201, #202 ) ) ;
#201 = ORIENTED_EDGE ( 'NONE', *, *, #198, .F. ) ;
#202 = ORIENTED_EDGE ( 'NONE', *, *, #262, .F. ) ;
#203 = ORIENTED_EDGE ( 'NONE', *, *, #236, .F. ) ;
#204 = ADVANCED_FACE ( 'NONE', ( #313 ), #274, .F. ) ;
#205 = ORIENTED_EDGE ( 'NONE', *, *, #260, .F. ) ;
#206 = AXIS2_PLACEMENT_3D ( 'NONE', #318, #319, #320 ) ;
#207 = DIRECTION ( 'NONE',  ( -0.0000000000000000000, -1.000000000000000000, -0.0000000000000000000 ) ) ;
#208 = VECTOR ( 'NONE', #207, 1000.000000000000000 ) ;
#209 = CARTESIAN_POINT ( 'NONE',  ( 0.0000000000000000000, 0.0000000000000000000, -24.00000000000000000 ) ) ;
#210 = LINE ( 'NONE', #209, #208 ) ;
#211 = DIRECTION ( 'NONE',  ( 0.0000000000000000000, 0.0000000000000000000, -1.000000000000000000 ) ) ;
#212 = DIRECTION ( 'NONE',  ( -0.0000000000000000000, -1.000000000000000000, -0.0000000000000000000 ) ) ;
#213 = CARTESIAN_POINT ( 'NONE',  ( 0.0000000000000000000, 1.224646799147352900E-015, 0.0000000000000000000 ) ) ;
#214 = AXIS2_PLACEMENT_3D ( 'NONE', #213, #212, #211 ) ;
#215 = CARTESIAN_POINT ( 'NONE',  ( 0.0000000000000000000, 1.224646799147352900E-015, -24.00000000000000000 ) ) ;
#216 = DIRECTION ( 'NONE',  ( 0.0000000000000000000, 0.0000000000000000000, -1.000000000000000000 ) ) ;
#217 = DIRECTION ( 'NONE',  ( -0.0000000000000000000, -1.000000000000000000, -0.0000000000000000000 ) ) ;
#218 = CARTESIAN_POINT ( 'NONE',  ( 0.0000000000000000000, 1.224646799147352900E-015, 0.0000000000000000000 ) ) ;
#219 = AXIS2_PLACEMENT_3D ( 'NONE', #218, #217, #216 ) ;
#220 = CIRCLE ( 'NONE', #219, 24.00000000000000000 ) ;
#221 = AXIS2_PLACEMENT_3D ( 'NONE', #163, #162, #161 ) ;
#222 = CARTESIAN_POINT ( 'NONE',  ( 1.561424668912875100E-015, -1.530808498934195800E-016, 12.75000000000000000 ) ) ;
#223 = DIRECTION ( 'NONE',  ( 1.000000000000000000, 0.0000000000000000000, 0.0000000000000000000 ) ) ;
#224 = DIRECTION ( 'NONE',  ( 0.0000000000000000000, 0.0000000000000000000, 1.000000000000000000 ) ) ;
#225 = CARTESIAN_POINT ( 'NONE',  ( 0.0000000000000000000, 60.59343587753182400, 0.0000000000000000000 ) ) ;
#226 = AXIS2_PLACEMENT_3D ( 'NONE', #225, #224, #223 ) ;
#227 = CARTESIAN_POINT ( 'NONE',  ( 2.939152317953647900E-015, 8.800000000000002500, 24.00000000000000000 ) ) ;
#228 = FACE_OUTER_BOUND ( 'NONE', #232, .T. ) ;
#229 = DIRECTION ( 'NONE',  ( 0.0000000000000000000, 0.0000000000000000000, -1.000000000000000000 ) ) ;
#230 = DIRECTION ( 'NONE',  ( -0.0000000000000000000, -1.000000000000000000, -0.0000000000000000000 ) ) ;
#231 = SPHERICAL_SURFACE ( 'NONE', #226, 57.00000000000000700 ) ;
#232 = EDGE_LOOP ( 'NONE', ( #197, #277, #255, #281 ) ) ;
#233 = ORIENTED_EDGE ( 'NONE', *, *, #293, .T. ) ;
#234 = EDGE_CURVE ( 'NONE', #294, #250, #275, .T. ) ;
#235 = VERTEX_POINT ( 'NONE', #144 ) ;
#236 = EDGE_CURVE ( 'NONE', #250, #235, #139, .T. ) ;
#237 = EDGE_CURVE ( 'NONE', #259, #242, #133, .T. ) ;
#238 = ORIENTED_EDGE ( 'NONE', *, *, #236, .T. ) ;
#239 = EDGE_CURVE ( 'NONE', #244, #235, #134, .T. ) ;
#240 = VERTEX_POINT ( 'NONE', #192 ) ;
#241 = ORIENTED_EDGE ( 'NONE', *, *, #239, .F. ) ;
#242 = VERTEX_POINT ( 'NONE', #138 ) ;
#243 = VERTEX_POINT ( 'NONE', #306 ) ;
#244 = VERTEX_POINT ( 'NONE', #129 ) ;
#245 = EDGE_CURVE ( 'NONE', #246, #244, #185, .T. ) ;
#246 = VERTEX_POINT ( 'NONE', #186 ) ;
#247 = EDGE_CURVE ( 'NONE', #243, #259, #178, .T. ) ;
#248 = CIRCLE ( 'NONE', #268, 12.75000000000000000 ) ;
#249 = ADVANCED_FACE ( 'NONE', ( #128 ), #231, .F. ) ;
#250 = VERTEX_POINT ( 'NONE', #148 ) ;
#251 = ORIENTED_EDGE ( 'NONE', *, *, #234, .T. ) ;
#252 = EDGE_LOOP ( 'NONE', ( #279, #285, #284, #265, #263 ) ) ;
#253 = EDGE_CURVE ( 'NONE', #242, #256, #220, .T. ) ;
#254 = ADVANCED_FACE ( 'NONE', ( #228 ), #191, .T. ) ;
#255 = ORIENTED_EDGE ( 'NONE', *, *, #278, .F. ) ;
#256 = VERTEX_POINT ( 'NONE', #215 ) ;
#257 = VERTEX_POINT ( 'NONE', #174 ) ;
#258 = VERTEX_POINT ( 'NONE', #222 ) ;
#259 = VERTEX_POINT ( 'NONE', #227 ) ;
#260 = EDGE_CURVE ( 'NONE', #240, #258, #169, .T. ) ;
#261 = EDGE_CURVE ( 'NONE', #235, #240, #165, .T. ) ;
#262 = EDGE_CURVE ( 'NONE', #258, #257, #160, .T. ) ;
#263 = ORIENTED_EDGE ( 'NONE', *, *, #234, .F. ) ;
#264 = EDGE_CURVE ( 'NONE', #250, #257, #156, .T. ) ;
#265 = ORIENTED_EDGE ( 'NONE', *, *, #264, .F. ) ;
#266 = ORIENTED_EDGE ( 'NONE', *, *, #278, .T. ) ;
#267 = CARTESIAN_POINT ( 'NONE',  ( 0.0000000000000000000, -1.530808498934195800E-016, 0.0000000000000000000 ) ) ;
#268 = AXIS2_PLACEMENT_3D ( 'NONE', #267, #151, #150 ) ;
#269 = DIRECTION ( 'NONE',  ( -0.0000000000000000000, -1.000000000000000000, -0.0000000000000000000 ) ) ;
#270 = CARTESIAN_POINT ( 'NONE',  ( 0.0000000000000000000, 0.0000000000000000000, 0.0000000000000000000 ) ) ;
#271 = DIRECTION ( 'NONE',  ( 0.0000000000000000000, 0.0000000000000000000, -1.000000000000000000 ) ) ;
#272 = DIRECTION ( 'NONE',  ( 0.0000000000000000000, -1.000000000000000000, -0.0000000000000000000 ) ) ;
#273 = CARTESIAN_POINT ( 'NONE',  ( 24.00000000000000000, 5.357829746269665700E-016, 0.0000000000000000000 ) ) ;
#274 = CYLINDRICAL_SURFACE ( 'NONE', #149, 12.75000000000000000 ) ;
#275 = CIRCLE ( 'NONE', #143, 12.75000000000000200 ) ;
#276 = FACE_OUTER_BOUND ( 'NONE', #286, .T. ) ;
#277 = ORIENTED_EDGE ( 'NONE', *, *, #237, .T. ) ;
#278 = EDGE_CURVE ( 'NONE', #256, #242, #152, .T. ) ;
#279 = ORIENTED_EDGE ( 'NONE', *, *, #282, .F. ) ;
#280 = EDGE_CURVE ( 'NONE', #243, #256, #210, .T. ) ;
#281 = ORIENTED_EDGE ( 'NONE', *, *, #280, .F. ) ;
#282 = EDGE_CURVE ( 'NONE', #240, #294, #157, .T. ) ;
#283 = ADVANCED_FACE ( 'NONE', ( #321 ), #2, .F. ) ;
#284 = ORIENTED_EDGE ( 'NONE', *, *, #262, .T. ) ;
#285 = ORIENTED_EDGE ( 'NONE', *, *, #260, .T. ) ;
#286 = EDGE_LOOP ( 'NONE', ( #266, #199 ) ) ;
#287 = ORIENTED_EDGE ( 'NONE', *, *, #245, .F. ) ;
#288 = EDGE_CURVE ( 'NONE', #259, #243, #84, .T. ) ;
#289 = ORIENTED_EDGE ( 'NONE', *, *, #288, .T. ) ;
#290 = ADVANCED_FACE ( 'NONE', ( #86 ), #89, .T. ) ;
#291 = ORIENTED_EDGE ( 'NONE', *, *, #253, .F. ) ;
#292 = ORIENTED_EDGE ( 'NONE', *, *, #280, .T. ) ;
#293 = EDGE_CURVE ( 'NONE', #246, #294, #85, .T. ) ;
#294 = VERTEX_POINT ( 'NONE', #76 ) ;
#295 = ORIENTED_EDGE ( 'NONE', *, *, #198, .T. ) ;
#296 = ORIENTED_EDGE ( 'NONE', *, *, #261, .F. ) ;
#297 = ORIENTED_EDGE ( 'NONE', *, *, #264, .T. ) ;
#298 = ORIENTED_EDGE ( 'NONE', *, *, #237, .F. ) ;
#299 = ORIENTED_EDGE ( 'NONE', *, *, #288, .F. ) ;
#300 = ORIENTED_EDGE ( 'NONE', *, *, #245, .T. ) ;
#301 = ORIENTED_EDGE ( 'NONE', *, *, #293, .F. ) ;
#302 = ORIENTED_EDGE ( 'NONE', *, *, #282, .T. ) ;
#303 = ORIENTED_EDGE ( 'NONE', *, *, #239, .T. ) ;
#304 = EDGE_LOOP ( 'NONE', ( #307, #299 ) ) ;
#305 = ORIENTED_EDGE ( 'NONE', *, *, #312, .F. ) ;
#306 = CARTESIAN_POINT ( 'NONE',  ( 0.0000000000000000000, 8.800000000000002500, -24.00000000000000000 ) ) ;
#307 = ORIENTED_EDGE ( 'NONE', *, *, #247, .F. ) ;
#308 = ORIENTED_EDGE ( 'NONE', *, *, #261, .T. ) ;
#309 = ORIENTED_EDGE ( 'NONE', *, *, #312, .T. ) ;
#310 = ADVANCED_FACE ( 'NONE', ( #72, #78 ), #66, .F. ) ;
#311 = EDGE_LOOP ( 'NONE', ( #309, #300 ) ) ;
#312 = EDGE_CURVE ( 'NONE', #244, #246, #15, .T. ) ;
#313 = FACE_OUTER_BOUND ( 'NONE', #195, .T. ) ;
#314 = AXIS2_PLACEMENT_3D ( 'NONE', #273, #272, #271 ) ;
#315 = PLANE ( 'NONE',  #314 ) ;
#316 = ADVANCED_FACE ( 'NONE', ( #65 ), #80, .F. ) ;
#317 = MANIFOLD_SOLID_BREP ( 'Cut-Revolve1', #175 ) ;
#318 = CARTESIAN_POINT ( 'NONE',  ( 0.0000000000000000000, 5.037720599983645200, 0.0000000000000000000 ) ) ;
#319 = DIRECTION ( 'NONE',  ( -0.0000000000000000000, -1.000000000000000000, -0.0000000000000000000 ) ) ;
#320 = DIRECTION ( 'NONE',  ( 0.0000000000000000000, 0.0000000000000000000, -1.000000000000000000 ) ) ;
#321 = FACE_OUTER_BOUND ( 'NONE', #252, .T. ) ;
ENDSEC;
END-ISO-10303-21;
