ISO-10303-21;
HEADER;
FILE_DESCRIPTION (( 'STEP AP203' ),
    '1' );
FILE_NAME ('WDS-401-207F.step',
    '2012-03-30T18:07:39',
    ( 'SysAdmin' ),
    ( 'SolidWorks' ),
    'SwSTEP 2.0',
    'SolidWorks 2012',
    '' );
FILE_SCHEMA (( 'CONFIG_CONTROL_DESIGN' ));
ENDSEC;

DATA;
#1 = PERSON_AND_ORGANIZATION_ROLE ( 'design_owner' ) ;
#2 = PERSON_AND_ORGANIZATION ( #57, #106 ) ;
#3 =( NAMED_UNIT ( * ) PLANE_ANGLE_UNIT ( ) SI_UNIT ( $, .RADIAN. ) );
#4 = APPLICATION_PROTOCOL_DEFINITION ( 'international standard', 'config_control_design', 1994, #230 ) ;
#5 = CARTESIAN_POINT ( 'NONE',  ( 2.449293598294706500E-015, 7.347880794884118800E-016, 20.00000000000000000 ) ) ;
#6 = CARTESIAN_POINT ( 'NONE',  ( 0.0000000000000000000, 7.347880794884118800E-016, -20.00000000000000000 ) ) ;
#7 =( LENGTH_UNIT ( ) NAMED_UNIT ( * ) SI_UNIT ( .MILLI., .METRE. ) );
#8 = DATE_AND_TIME ( #108, #275 ) ;
#9 = APPROVAL_DATE_TIME ( #21, #283 ) ;
#10 =( NAMED_UNIT ( * ) SI_UNIT ( $, .STERADIAN. ) SOLID_ANGLE_UNIT ( ) );
#11 = APPROVAL_ROLE ( '' ) ;
#12 = APPROVAL_STATUS ( 'not_yet_approved' ) ;
#13 = APPROVAL_DATE_TIME ( #35, #281 ) ;
#14 = CARTESIAN_POINT ( 'NONE',  ( 0.0000000000000000000, 0.0000000000000000000, 0.0000000000000000000 ) ) ;
#15 = PERSON_AND_ORGANIZATION ( #57, #106 ) ;
#16 = CARTESIAN_POINT ( 'NONE',  ( -19.80000000000001100, 7.199999999999999300, 2.424800662311761000E-015 ) ) ;
#17 = PERSON_AND_ORGANIZATION_ROLE ( 'classification_officer' ) ;
#18 = PERSON_AND_ORGANIZATION_ROLE ( 'creator' ) ;
#19 = DATE_TIME_ROLE ( 'classification_date' ) ;
#20 = APPROVAL_STATUS ( 'not_yet_approved' ) ;
#21 = DATE_AND_TIME ( #103, #282 ) ;
#22 = CARTESIAN_POINT ( 'NONE',  ( 1.377727649040772400E-015, -3.367778697655225400E-016, 11.25000000000000000 ) ) ;
#23 = CARTESIAN_POINT ( 'NONE',  ( 2.449293598294706900E-015, 7.200000000000001100, 20.00000000000000400 ) ) ;
#24 = CARTESIAN_POINT ( 'NONE',  ( 11.25000000000000000, 4.262944135498063500, 0.0000000000000000000 ) ) ;
#25 = APPROVAL_ROLE ( '' ) ;
#26 = PERSON_AND_ORGANIZATION ( #57, #106 ) ;
#27 = PERSON_AND_ORGANIZATION_ROLE ( 'design_supplier' ) ;
#28 = CARTESIAN_POINT ( 'NONE',  ( 0.0000000000000000000, 4.262944135498063500, -11.25000000000000000 ) ) ;
#29 = DIRECTION ( 'NONE',  ( 1.000000000000000000, 0.0000000000000000000, 0.0000000000000000000 ) ) ;
#30 = CARTESIAN_POINT ( 'NONE',  ( 0.0000000000000000000, -3.367778697655225400E-016, -11.25000000000000000 ) ) ;
#31 = APPLICATION_PROTOCOL_DEFINITION ( 'international standard', 'config_control_design', 1994, #231 ) ;
#32 = PERSON_AND_ORGANIZATION_ROLE ( 'creator' ) ;
#33 = CARTESIAN_POINT ( 'NONE',  ( 1.377727649040772400E-015, 4.262944135498063500, 11.25000000000000000 ) ) ;
#34 = CARTESIAN_POINT ( 'NONE',  ( 19.80000000000001100, 7.199999999999999300, 0.0000000000000000000 ) ) ;
#35 = DATE_AND_TIME ( #76, #277 ) ;
#36 = PERSON_AND_ORGANIZATION ( #57, #106 ) ;
#37 = APPROVAL_STATUS ( 'not_yet_approved' ) ;
#38 = DATE_AND_TIME ( #74, #290 ) ;
#39 = PERSON_AND_ORGANIZATION ( #57, #106 ) ;
#40 = CARTESIAN_POINT ( 'NONE',  ( 0.0000000000000000000, 7.200000000000001100, -20.00000000000000400 ) ) ;
#41 = PERSON_AND_ORGANIZATION ( #57, #106 ) ;
#42 = PERSON_AND_ORGANIZATION ( #57, #106 ) ;
#43 = CARTESIAN_POINT ( 'NONE',  ( -11.25000000000000000, 4.262944135498063500, 1.901264155676266100E-015 ) ) ;
#44 = DATE_AND_TIME ( #66, #286 ) ;
#45 = DIRECTION ( 'NONE',  ( 0.0000000000000000000, 0.0000000000000000000, -1.000000000000000000 ) ) ;
#46 = DIRECTION ( 'NONE',  ( 0.0000000000000000000, 0.0000000000000000000, 1.000000000000000000 ) ) ;
#47 = MECHANICAL_CONTEXT ( 'NONE', #230, 'mechanical' ) ;
#48 = SHAPE_DEFINITION_REPRESENTATION ( #320, #56 ) ;
#49 = APPROVAL_ROLE ( '' ) ;
#50 = PERSON_AND_ORGANIZATION ( #57, #106 ) ;
#51 = DATE_TIME_ROLE ( 'creation_date' ) ;
#52 = SECURITY_CLASSIFICATION_LEVEL ( 'unclassified' ) ;
#53 = APPROVAL_DATE_TIME ( #44, #291 ) ;
#54 = PRODUCT ( 'WDS-401-207F', 'WDS-401-207F', '', ( #47 ) ) ;
#55 = UNCERTAINTY_MEASURE_WITH_UNIT (LENGTH_MEASURE( 1.000000000000000100E-005 ), #7, 'distance_accuracy_value', 'NONE');
#56 = ADVANCED_BREP_SHAPE_REPRESENTATION ( 'WDS-401-207F', ( #321, #110 ), #232 ) ;
#57 = PERSON ( 'UNSPECIFIED', 'UNSPECIFIED', 'UNSPECIFIED', ('UNSPECIFIED'), ('UNSPECIFIED'), ('UNSPECIFIED') ) ;
#58 = FACE_OUTER_BOUND ( 'NONE', #196, .T. ) ;
#59 = SPHERICAL_SURFACE ( 'NONE', #95, 48.00000000000000000 ) ;
#60 = VECTOR ( 'NONE', #159, 1000.000000000000000 ) ;
#61 = COORDINATED_UNIVERSAL_TIME_OFFSET ( 5, 0, .BEHIND. ) ;
#62 = CC_DESIGN_APPROVAL ( #291, ( #293 ) ) ;
#63 = AXIS2_PLACEMENT_3D ( 'NONE', #182, #178, #181 ) ;
#64 = AXIS2_PLACEMENT_3D ( 'NONE', #173, #176, #198 ) ;
#65 = SECURITY_CLASSIFICATION ( '', '', #52 ) ;
#66 = CALENDAR_DATE ( 2012, 30, 3 ) ;
#67 = AXIS2_PLACEMENT_3D ( 'NONE', #175, #180, #191 ) ;
#68 = CYLINDRICAL_SURFACE ( 'NONE', #102, 20.00000000000000000 ) ;
#69 = FACE_OUTER_BOUND ( 'NONE', #151, .T. ) ;
#70 = AXIS2_PLACEMENT_3D ( 'NONE', #212, #208, #221 ) ;
#71 = AXIS2_PLACEMENT_3D ( 'NONE', #138, #161, #162 ) ;
#72 = AXIS2_PLACEMENT_3D ( 'NONE', #223, #214, #127 ) ;
#73 = VECTOR ( 'NONE', #165, 1000.000000000000000 ) ;
#74 = CALENDAR_DATE ( 2012, 30, 3 ) ;
#75 = AXIS2_PLACEMENT_3D ( 'NONE', #170, #183, #166 ) ;
#76 = CALENDAR_DATE ( 2012, 30, 3 ) ;
#77 = APPROVAL_PERSON_ORGANIZATION ( #2, #291, #49 ) ;
#78 = AXIS2_PLACEMENT_3D ( 'NONE', #204, #205, #207 ) ;
#79 = AXIS2_PLACEMENT_3D ( 'NONE', #122, #139, #45 ) ;
#80 = FACE_BOUND ( 'NONE', #116, .T. ) ;
#81 = APPROVAL_PERSON_ORGANIZATION ( #42, #283, #11 ) ;
#82 = FACE_OUTER_BOUND ( 'NONE', #190, .T. ) ;
#83 = VECTOR ( 'NONE', #179, 1000.000000000000000 ) ;
#84 = PRODUCT_DEFINITION_FORMATION_WITH_SPECIFIED_SOURCE ( 'ANY', '', #54, .NOT_KNOWN. ) ;
#85 = SPHERICAL_SURFACE ( 'NONE', #91, 48.00000000000000000 ) ;
#86 = COORDINATED_UNIVERSAL_TIME_OFFSET ( 5, 0, .BEHIND. ) ;
#87 = COORDINATED_UNIVERSAL_TIME_OFFSET ( 5, 0, .BEHIND. ) ;
#88 = AXIS2_PLACEMENT_3D ( 'NONE', #157, #156, #154 ) ;
#89 = FACE_OUTER_BOUND ( 'NONE', #209, .T. ) ;
#90 = FACE_BOUND ( 'NONE', #131, .T. ) ;
#91 = AXIS2_PLACEMENT_3D ( 'NONE', #216, #210, #228 ) ;
#92 = FACE_OUTER_BOUND ( 'NONE', #124, .T. ) ;
#93 = CYLINDRICAL_SURFACE ( 'NONE', #70, 11.25000000000000000 ) ;
#94 = AXIS2_PLACEMENT_3D ( 'NONE', #149, #172, #169 ) ;
#95 = AXIS2_PLACEMENT_3D ( 'NONE', #224, #218, #177 ) ;
#96 = CYLINDRICAL_SURFACE ( 'NONE', #75, 11.25000000000000000 ) ;
#97 = AXIS2_PLACEMENT_3D ( 'NONE', #168, #164, #201 ) ;
#98 = AXIS2_PLACEMENT_3D ( 'NONE', #153, #188, #152 ) ;
#99 = COORDINATED_UNIVERSAL_TIME_OFFSET ( 5, 0, .BEHIND. ) ;
#100 = CYLINDRICAL_SURFACE ( 'NONE', #71, 20.00000000000000000 ) ;
#101 = CC_DESIGN_SECURITY_CLASSIFICATION ( #65, ( #84 ) ) ;
#102 = AXIS2_PLACEMENT_3D ( 'NONE', #229, #225, #226 ) ;
#103 = CALENDAR_DATE ( 2012, 30, 3 ) ;
#104 = APPROVAL_PERSON_ORGANIZATION ( #41, #281, #25 ) ;
#105 = CC_DESIGN_APPROVAL ( #283, ( #65 ) ) ;
#106 = ORGANIZATION ( 'UNSPECIFIED', 'UNSPECIFIED', '' ) ;
#107 = FACE_OUTER_BOUND ( 'NONE', #189, .T. ) ;
#108 = CALENDAR_DATE ( 2012, 30, 3 ) ;
#109 = AXIS2_PLACEMENT_3D ( 'NONE', #199, #200, #184 ) ;
#110 = AXIS2_PLACEMENT_3D ( 'NONE', #14, #46, #29 ) ;
#111 = FACE_OUTER_BOUND ( 'NONE', #117, .T. ) ;
#112 = AXIS2_PLACEMENT_3D ( 'NONE', #222, #215, #206 ) ;
#113 = COORDINATED_UNIVERSAL_TIME_OFFSET ( 5, 0, .BEHIND. ) ;
#114 = CC_DESIGN_APPROVAL ( #281, ( #84 ) ) ;
#115 = AXIS2_PLACEMENT_3D ( 'NONE', #144, #147, #148 ) ;
#116 = EDGE_LOOP ( 'NONE', ( #298, #313 ) ) ;
#117 = EDGE_LOOP ( 'NONE', ( #211, #135 ) ) ;
#118 = ORIENTED_EDGE ( 'NONE', *, *, #240, .F. ) ;
#119 = LINE ( 'NONE', #140, #263 ) ;
#120 = ORIENTED_EDGE ( 'NONE', *, *, #252, .F. ) ;
#121 = DIRECTION ( 'NONE',  ( 0.0000000000000000000, 0.0000000000000000000, -1.000000000000000000 ) ) ;
#122 = CARTESIAN_POINT ( 'NONE',  ( 0.0000000000000000000, 7.200000000000000200, 0.0000000000000000000 ) ) ;
#123 = ORIENTED_EDGE ( 'NONE', *, *, #249, .F. ) ;
#124 = EDGE_LOOP ( 'NONE', ( #145, #160, #142, #130 ) ) ;
#125 = ORIENTED_EDGE ( 'NONE', *, *, #247, .T. ) ;
#126 = ORIENTED_EDGE ( 'NONE', *, *, #237, .F. ) ;
#127 = DIRECTION ( 'NONE',  ( 0.0000000000000000000, 0.0000000000000000000, -1.000000000000000000 ) ) ;
#128 = ORIENTED_EDGE ( 'NONE', *, *, #236, .F. ) ;
#129 = DIRECTION ( 'NONE',  ( -0.0000000000000000000, -1.000000000000000000, -0.0000000000000000000 ) ) ;
#130 = ORIENTED_EDGE ( 'NONE', *, *, #250, .F. ) ;
#131 = EDGE_LOOP ( 'NONE', ( #120, #126 ) ) ;
#132 = ORIENTED_EDGE ( 'NONE', *, *, #235, .T. ) ;
#133 = ORIENTED_EDGE ( 'NONE', *, *, #242, .T. ) ;
#134 = ORIENTED_EDGE ( 'NONE', *, *, #252, .T. ) ;
#135 = ORIENTED_EDGE ( 'NONE', *, *, #250, .T. ) ;
#136 = ORIENTED_EDGE ( 'NONE', *, *, #251, .F. ) ;
#137 = ORIENTED_EDGE ( 'NONE', *, *, #244, .T. ) ;
#138 = CARTESIAN_POINT ( 'NONE',  ( 0.0000000000000000000, 0.0000000000000000000, 0.0000000000000000000 ) ) ;
#139 = DIRECTION ( 'NONE',  ( -0.0000000000000000000, -1.000000000000000000, -0.0000000000000000000 ) ) ;
#140 = CARTESIAN_POINT ( 'NONE',  ( 2.449293598294706500E-015, 0.0000000000000000000, 20.00000000000000000 ) ) ;
#141 = ORIENTED_EDGE ( 'NONE', *, *, #233, .T. ) ;
#142 = ORIENTED_EDGE ( 'NONE', *, *, #239, .T. ) ;
#143 = CARTESIAN_POINT ( 'NONE',  ( 0.0000000000000000000, 7.200000000000001100, 0.0000000000000000000 ) ) ;
#144 = CARTESIAN_POINT ( 'NONE',  ( 0.0000000000000000000, 50.92596482640490800, 0.0000000000000000000 ) ) ;
#145 = ORIENTED_EDGE ( 'NONE', *, *, #235, .F. ) ;
#146 = DIRECTION ( 'NONE',  ( -0.0000000000000000000, -1.000000000000000000, -0.0000000000000000000 ) ) ;
#147 = DIRECTION ( 'NONE',  ( 1.224646799147353200E-016, -0.0000000000000000000, 1.000000000000000000 ) ) ;
#148 = DIRECTION ( 'NONE',  ( 1.000000000000000000, 0.0000000000000000000, -1.224646799147353200E-016 ) ) ;
#149 = CARTESIAN_POINT ( 'NONE',  ( 19.80000000000000400, 7.200000000000000200, 0.0000000000000000000 ) ) ;
#150 = DIRECTION ( 'NONE',  ( -0.0000000000000000000, -1.000000000000000000, -0.0000000000000000000 ) ) ;
#151 = EDGE_LOOP ( 'NONE', ( #312, #133, #314, #308, #297 ) ) ;
#152 = DIRECTION ( 'NONE',  ( 0.0000000000000000000, 0.0000000000000000000, -1.000000000000000000 ) ) ;
#153 = CARTESIAN_POINT ( 'NONE',  ( 0.0000000000000000000, 4.262944135498063500, 0.0000000000000000000 ) ) ;
#154 = DIRECTION ( 'NONE',  ( 0.0000000000000000000, 0.0000000000000000000, -1.000000000000000000 ) ) ;
#155 = LINE ( 'NONE', #158, #83 ) ;
#156 = DIRECTION ( 'NONE',  ( -0.0000000000000000000, -1.000000000000000000, -0.0000000000000000000 ) ) ;
#157 = CARTESIAN_POINT ( 'NONE',  ( 0.0000000000000000000, -3.367778697655225400E-016, 0.0000000000000000000 ) ) ;
#158 = CARTESIAN_POINT ( 'NONE',  ( 0.0000000000000000000, 0.0000000000000000000, -20.00000000000000000 ) ) ;
#159 = DIRECTION ( 'NONE',  ( -0.0000000000000000000, -1.000000000000000000, -0.0000000000000000000 ) ) ;
#160 = ORIENTED_EDGE ( 'NONE', *, *, #273, .T. ) ;
#161 = DIRECTION ( 'NONE',  ( -0.0000000000000000000, -1.000000000000000000, -0.0000000000000000000 ) ) ;
#162 = DIRECTION ( 'NONE',  ( 0.0000000000000000000, 0.0000000000000000000, -1.000000000000000000 ) ) ;
#163 = CARTESIAN_POINT ( 'NONE',  ( 0.0000000000000000000, 0.0000000000000000000, -11.25000000000000000 ) ) ;
#164 = DIRECTION ( 'NONE',  ( -0.0000000000000000000, -1.000000000000000000, -0.0000000000000000000 ) ) ;
#165 = DIRECTION ( 'NONE',  ( -0.0000000000000000000, -1.000000000000000000, -0.0000000000000000000 ) ) ;
#166 = DIRECTION ( 'NONE',  ( 0.0000000000000000000, 0.0000000000000000000, -1.000000000000000000 ) ) ;
#167 = LINE ( 'NONE', #163, #73 ) ;
#168 = CARTESIAN_POINT ( 'NONE',  ( 0.0000000000000000000, 4.262944135498063500, 0.0000000000000000000 ) ) ;
#169 = DIRECTION ( 'NONE',  ( 0.0000000000000000000, 0.0000000000000000000, -1.000000000000000000 ) ) ;
#170 = CARTESIAN_POINT ( 'NONE',  ( 0.0000000000000000000, 0.0000000000000000000, 0.0000000000000000000 ) ) ;
#171 = PLANE ( 'NONE',  #94 ) ;
#172 = DIRECTION ( 'NONE',  ( 0.0000000000000000000, -1.000000000000000000, -0.0000000000000000000 ) ) ;
#173 = CARTESIAN_POINT ( 'NONE',  ( 0.0000000000000000000, 50.92596482640490800, 0.0000000000000000000 ) ) ;
#174 = ORIENTED_EDGE ( 'NONE', *, *, #276, .F. ) ;
#175 = CARTESIAN_POINT ( 'NONE',  ( 0.0000000000000000000, 7.347880794884118800E-016, 0.0000000000000000000 ) ) ;
#176 = DIRECTION ( 'NONE',  ( 0.0000000000000000000, 0.0000000000000000000, -1.000000000000000000 ) ) ;
#177 = DIRECTION ( 'NONE',  ( 1.000000000000000000, 0.0000000000000000000, 0.0000000000000000000 ) ) ;
#178 = DIRECTION ( 'NONE',  ( -0.0000000000000000000, -1.000000000000000000, -0.0000000000000000000 ) ) ;
#179 = DIRECTION ( 'NONE',  ( -0.0000000000000000000, -1.000000000000000000, -0.0000000000000000000 ) ) ;
#180 = DIRECTION ( 'NONE',  ( -0.0000000000000000000, -1.000000000000000000, -0.0000000000000000000 ) ) ;
#181 = DIRECTION ( 'NONE',  ( 0.0000000000000000000, 0.0000000000000000000, -1.000000000000000000 ) ) ;
#182 = CARTESIAN_POINT ( 'NONE',  ( 0.0000000000000000000, 4.262944135498063500, 0.0000000000000000000 ) ) ;
#183 = DIRECTION ( 'NONE',  ( -0.0000000000000000000, -1.000000000000000000, -0.0000000000000000000 ) ) ;
#184 = DIRECTION ( 'NONE',  ( 0.0000000000000000000, 0.0000000000000000000, -1.000000000000000000 ) ) ;
#185 = ORIENTED_EDGE ( 'NONE', *, *, #237, .T. ) ;
#186 = CARTESIAN_POINT ( 'NONE',  ( 1.377727649040772400E-015, 0.0000000000000000000, 11.25000000000000000 ) ) ;
#187 = ORIENTED_EDGE ( 'NONE', *, *, #244, .F. ) ;
#188 = DIRECTION ( 'NONE',  ( -0.0000000000000000000, -1.000000000000000000, -0.0000000000000000000 ) ) ;
#189 = EDGE_LOOP ( 'NONE', ( #118, #136, #123, #137, #134 ) ) ;
#190 = EDGE_LOOP ( 'NONE', ( #194, #195, #185, #187, #213 ) ) ;
#191 = DIRECTION ( 'NONE',  ( 0.0000000000000000000, 0.0000000000000000000, -1.000000000000000000 ) ) ;
#192 = DIRECTION ( 'NONE',  ( 0.0000000000000000000, 0.0000000000000000000, -1.000000000000000000 ) ) ;
#193 = CARTESIAN_POINT ( 'NONE',  ( 0.0000000000000000000, 7.347880794884118800E-016, 0.0000000000000000000 ) ) ;
#194 = ORIENTED_EDGE ( 'NONE', *, *, #234, .F. ) ;
#195 = ORIENTED_EDGE ( 'NONE', *, *, #240, .T. ) ;
#196 = EDGE_LOOP ( 'NONE', ( #227, #174, #125, #315, #317 ) ) ;
#197 = EDGE_LOOP ( 'NONE', ( #299, #301 ) ) ;
#198 = DIRECTION ( 'NONE',  ( -1.000000000000000000, 0.0000000000000000000, 0.0000000000000000000 ) ) ;
#199 = CARTESIAN_POINT ( 'NONE',  ( 0.0000000000000000000, 7.200000000000000200, 0.0000000000000000000 ) ) ;
#200 = DIRECTION ( 'NONE',  ( -0.0000000000000000000, -1.000000000000000000, -0.0000000000000000000 ) ) ;
#201 = DIRECTION ( 'NONE',  ( 0.0000000000000000000, 0.0000000000000000000, -1.000000000000000000 ) ) ;
#202 = LINE ( 'NONE', #186, #60 ) ;
#203 = DIRECTION ( 'NONE',  ( -0.0000000000000000000, -1.000000000000000000, -0.0000000000000000000 ) ) ;
#204 = CARTESIAN_POINT ( 'NONE',  ( 0.0000000000000000000, -3.367778697655225400E-016, 0.0000000000000000000 ) ) ;
#205 = DIRECTION ( 'NONE',  ( -0.0000000000000000000, -1.000000000000000000, -0.0000000000000000000 ) ) ;
#206 = DIRECTION ( 'NONE',  ( 0.0000000000000000000, 0.0000000000000000000, -1.000000000000000000 ) ) ;
#207 = DIRECTION ( 'NONE',  ( 0.0000000000000000000, 0.0000000000000000000, -1.000000000000000000 ) ) ;
#208 = DIRECTION ( 'NONE',  ( -0.0000000000000000000, -1.000000000000000000, -0.0000000000000000000 ) ) ;
#209 = EDGE_LOOP ( 'NONE', ( #141, #132, #128, #306 ) ) ;
#210 = DIRECTION ( 'NONE',  ( 0.0000000000000000000, 0.0000000000000000000, 1.000000000000000000 ) ) ;
#211 = ORIENTED_EDGE ( 'NONE', *, *, #236, .T. ) ;
#212 = CARTESIAN_POINT ( 'NONE',  ( 0.0000000000000000000, 0.0000000000000000000, 0.0000000000000000000 ) ) ;
#213 = ORIENTED_EDGE ( 'NONE', *, *, #238, .F. ) ;
#214 = DIRECTION ( 'NONE',  ( -0.0000000000000000000, -1.000000000000000000, -0.0000000000000000000 ) ) ;
#215 = DIRECTION ( 'NONE',  ( 0.0000000000000000000, -1.000000000000000000, -0.0000000000000000000 ) ) ;
#216 = CARTESIAN_POINT ( 'NONE',  ( 0.0000000000000000000, 50.92596482640490800, 0.0000000000000000000 ) ) ;
#217 = PLANE ( 'NONE',  #112 ) ;
#218 = DIRECTION ( 'NONE',  ( 0.0000000000000000000, 0.0000000000000000000, 1.000000000000000000 ) ) ;
#219 = CARTESIAN_POINT ( 'NONE',  ( 0.0000000000000000000, 4.262944135498063500, 0.0000000000000000000 ) ) ;
#220 = DIRECTION ( 'NONE',  ( 0.0000000000000000000, 0.0000000000000000000, -1.000000000000000000 ) ) ;
#221 = DIRECTION ( 'NONE',  ( 0.0000000000000000000, 0.0000000000000000000, -1.000000000000000000 ) ) ;
#222 = CARTESIAN_POINT ( 'NONE',  ( 20.00000000000000000, 1.990051048614446400E-016, 0.0000000000000000000 ) ) ;
#223 = CARTESIAN_POINT ( 'NONE',  ( 0.0000000000000000000, 7.200000000000001100, 0.0000000000000000000 ) ) ;
#224 = CARTESIAN_POINT ( 'NONE',  ( 0.0000000000000000000, 50.92596482640490800, 0.0000000000000000000 ) ) ;
#225 = DIRECTION ( 'NONE',  ( -0.0000000000000000000, -1.000000000000000000, -0.0000000000000000000 ) ) ;
#226 = DIRECTION ( 'NONE',  ( 0.0000000000000000000, 0.0000000000000000000, -1.000000000000000000 ) ) ;
#227 = ORIENTED_EDGE ( 'NONE', *, *, #242, .F. ) ;
#228 = DIRECTION ( 'NONE',  ( 1.000000000000000000, 0.0000000000000000000, 0.0000000000000000000 ) ) ;
#229 = CARTESIAN_POINT ( 'NONE',  ( 0.0000000000000000000, 0.0000000000000000000, 0.0000000000000000000 ) ) ;
#230 = APPLICATION_CONTEXT ( 'configuration controlled 3d designs of mechanical parts and assemblies' ) ;
#231 = APPLICATION_CONTEXT ( 'configuration controlled 3d designs of mechanical parts and assemblies' ) ;
#232 =( GEOMETRIC_REPRESENTATION_CONTEXT ( 3 ) GLOBAL_UNCERTAINTY_ASSIGNED_CONTEXT ( ( #55 ) ) GLOBAL_UNIT_ASSIGNED_CONTEXT ( ( #7, #3, #10 ) ) REPRESENTATION_CONTEXT ( 'NONE', 'WORKASPACE' ) );
#233 = EDGE_CURVE ( 'NONE', #310, #318, #274, .T. ) ;
#234 = EDGE_CURVE ( 'NONE', #307, #302, #265, .T. ) ;
#235 = EDGE_CURVE ( 'NONE', #318, #304, #119, .T. ) ;
#236 = EDGE_CURVE ( 'NONE', #316, #304, #287, .T. ) ;
#237 = EDGE_CURVE ( 'NONE', #300, #296, #288, .T. ) ;
#238 = EDGE_CURVE ( 'NONE', #302, #303, #272, .T. ) ;
#239 = EDGE_CURVE ( 'NONE', #310, #316, #155, .T. ) ;
#240 = EDGE_CURVE ( 'NONE', #307, #300, #202, .T. ) ;
#241 = CC_DESIGN_PERSON_AND_ORGANIZATION_ASSIGNMENT ( #15, #1, ( #54 ) ) ;
#242 = EDGE_CURVE ( 'NONE', #305, #302, #271, .T. ) ;
#243 = ADVANCED_FACE ( 'NONE', ( #262, #80 ), #171, .F. ) ;
#244 = EDGE_CURVE ( 'NONE', #303, #296, #167, .T. ) ;
#245 = ADVANCED_FACE ( 'NONE', ( #89 ), #100, .T. ) ;
#246 = ADVANCED_FACE ( 'NONE', ( #82 ), #96, .F. ) ;
#247 = EDGE_CURVE ( 'NONE', #309, #311, #270, .T. ) ;
#248 = EDGE_CURVE ( 'NONE', #305, #309, #269, .T. ) ;
#249 = EDGE_CURVE ( 'NONE', #303, #311, #268, .T. ) ;
#250 = EDGE_CURVE ( 'NONE', #304, #316, #267, .T. ) ;
#251 = EDGE_CURVE ( 'NONE', #311, #307, #266, .T. ) ;
#252 = EDGE_CURVE ( 'NONE', #296, #300, #294, .T. ) ;
#253 = ADVANCED_FACE ( 'NONE', ( #107 ), #93, .F. ) ;
#254 = ADVANCED_FACE ( 'NONE', ( #111, #90 ), #217, .T. ) ;
#255 = ADVANCED_FACE ( 'NONE', ( #69 ), #85, .F. ) ;
#256 = ADVANCED_FACE ( 'NONE', ( #92 ), #68, .T. ) ;
#257 = ADVANCED_FACE ( 'NONE', ( #58 ), #59, .F. ) ;
#258 = AXIS2_PLACEMENT_3D ( 'NONE', #193, #150, #220 ) ;
#259 = AXIS2_PLACEMENT_3D ( 'NONE', #143, #129, #121 ) ;
#260 = AXIS2_PLACEMENT_3D ( 'NONE', #219, #203, #192 ) ;
#261 = CLOSED_SHELL ( 'NONE', ( #255, #245, #246, #254, #253, #256, #257, #243 ) ) ;
#262 = FACE_OUTER_BOUND ( 'NONE', #197, .T. ) ;
#263 = VECTOR ( 'NONE', #146, 1000.000000000000000 ) ;
#264 = CC_DESIGN_PERSON_AND_ORGANIZATION_ASSIGNMENT ( #39, #17, ( #65 ) ) ;
#265 = CIRCLE ( 'NONE', #260, 11.25000000000000000 ) ;
#266 = CIRCLE ( 'NONE', #97, 11.25000000000000000 ) ;
#267 = CIRCLE ( 'NONE', #67, 20.00000000000000000 ) ;
#268 = CIRCLE ( 'NONE', #63, 11.25000000000000000 ) ;
#269 = CIRCLE ( 'NONE', #109, 19.80000000000000400 ) ;
#270 = CIRCLE ( 'NONE', #64, 48.00000000000000000 ) ;
#271 = CIRCLE ( 'NONE', #115, 48.00000000000000000 ) ;
#272 = CIRCLE ( 'NONE', #98, 11.25000000000000000 ) ;
#273 = EDGE_CURVE ( 'NONE', #318, #310, #285, .T. ) ;
#274 = CIRCLE ( 'NONE', #259, 20.00000000000000400 ) ;
#275 = LOCAL_TIME ( 14, 7, 39.00000000000000000, #113 ) ;
#276 = EDGE_CURVE ( 'NONE', #309, #305, #295, .T. ) ;
#277 = LOCAL_TIME ( 14, 7, 39.00000000000000000, #61 ) ;
#278 = CC_DESIGN_DATE_AND_TIME_ASSIGNMENT ( #8, #51, ( #293 ) ) ;
#279 = PRODUCT_RELATED_PRODUCT_CATEGORY ( 'detail', '', ( #54 ) ) ;
#280 = CC_DESIGN_PERSON_AND_ORGANIZATION_ASSIGNMENT ( #36, #18, ( #84 ) ) ;
#281 = APPROVAL ( #12, 'UNSPECIFIED' ) ;
#282 = LOCAL_TIME ( 14, 7, 39.00000000000000000, #87 ) ;
#283 = APPROVAL ( #20, 'UNSPECIFIED' ) ;
#284 = CC_DESIGN_DATE_AND_TIME_ASSIGNMENT ( #38, #19, ( #65 ) ) ;
#285 = CIRCLE ( 'NONE', #72, 20.00000000000000400 ) ;
#286 = LOCAL_TIME ( 14, 7, 39.00000000000000000, #99 ) ;
#287 = CIRCLE ( 'NONE', #258, 20.00000000000000000 ) ;
#288 = CIRCLE ( 'NONE', #88, 11.25000000000000000 ) ;
#289 = CC_DESIGN_PERSON_AND_ORGANIZATION_ASSIGNMENT ( #50, #32, ( #293 ) ) ;
#290 = LOCAL_TIME ( 14, 7, 39.00000000000000000, #86 ) ;
#291 = APPROVAL ( #37, 'UNSPECIFIED' ) ;
#292 = CC_DESIGN_PERSON_AND_ORGANIZATION_ASSIGNMENT ( #26, #27, ( #84 ) ) ;
#293 = PRODUCT_DEFINITION ( 'UNKNOWN', '', #84, #319 ) ;
#294 = CIRCLE ( 'NONE', #78, 11.25000000000000000 ) ;
#295 = CIRCLE ( 'NONE', #79, 19.80000000000000400 ) ;
#296 = VERTEX_POINT ( 'NONE', #30 ) ;
#297 = ORIENTED_EDGE ( 'NONE', *, *, #247, .F. ) ;
#298 = ORIENTED_EDGE ( 'NONE', *, *, #276, .T. ) ;
#299 = ORIENTED_EDGE ( 'NONE', *, *, #233, .F. ) ;
#300 = VERTEX_POINT ( 'NONE', #22 ) ;
#301 = ORIENTED_EDGE ( 'NONE', *, *, #273, .F. ) ;
#302 = VERTEX_POINT ( 'NONE', #43 ) ;
#303 = VERTEX_POINT ( 'NONE', #28 ) ;
#304 = VERTEX_POINT ( 'NONE', #5 ) ;
#305 = VERTEX_POINT ( 'NONE', #16 ) ;
#306 = ORIENTED_EDGE ( 'NONE', *, *, #239, .F. ) ;
#307 = VERTEX_POINT ( 'NONE', #33 ) ;
#308 = ORIENTED_EDGE ( 'NONE', *, *, #249, .T. ) ;
#309 = VERTEX_POINT ( 'NONE', #34 ) ;
#310 = VERTEX_POINT ( 'NONE', #40 ) ;
#311 = VERTEX_POINT ( 'NONE', #24 ) ;
#312 = ORIENTED_EDGE ( 'NONE', *, *, #248, .F. ) ;
#313 = ORIENTED_EDGE ( 'NONE', *, *, #248, .T. ) ;
#314 = ORIENTED_EDGE ( 'NONE', *, *, #238, .T. ) ;
#315 = ORIENTED_EDGE ( 'NONE', *, *, #251, .T. ) ;
#316 = VERTEX_POINT ( 'NONE', #6 ) ;
#317 = ORIENTED_EDGE ( 'NONE', *, *, #234, .T. ) ;
#318 = VERTEX_POINT ( 'NONE', #23 ) ;
#319 = DESIGN_CONTEXT ( 'detailed design', #231, 'design' ) ;
#320 = PRODUCT_DEFINITION_SHAPE ( 'NONE', 'NONE',  #293 ) ;
#321 = MANIFOLD_SOLID_BREP ( 'Cut-Revolve1', #261 ) ;
ENDSEC;
END-ISO-10303-21;
