ISO-10303-21;
HEADER;
FILE_DESCRIPTION (( 'STEP AP203' ),
    '1' );
FILE_NAME ('WDS-401-2005F.step',
    '2012-03-30T18:05:23',
    ( 'sysAdmin' ),
    ( 'SolidWorks' ),
    'SwSTEP 2.0',
    'SolidWorks 2012',
    '' );
FILE_SCHEMA (( 'CONFIG_CONTROL_DESIGN' ));
ENDSEC;

DATA;
#1 = MANIFOLD_SOLID_BREP ( 'Cut-Revolve1', #57 ) ;
#2 = AXIS2_PLACEMENT_3D ( 'NONE', #134, #11, #42 ) ;
#3 = APPROVAL_DATE_TIME ( #133, #198 ) ;
#4 = FACE_OUTER_BOUND ( 'NONE', #120, .T. ) ;
#5 = DIRECTION ( 'NONE',  ( 0.0000000000000000000, 0.0000000000000000000, -1.000000000000000000 ) ) ;
#6 = DIRECTION ( 'NONE',  ( -0.0000000000000000000, -1.000000000000000000, -0.0000000000000000000 ) ) ;
#7 = CARTESIAN_POINT ( 'NONE',  ( 0.0000000000000000000, 3.200000000000000200, 0.0000000000000000000 ) ) ;
#8 = AXIS2_PLACEMENT_3D ( 'NONE', #7, #6, #5 ) ;
#9 = CARTESIAN_POINT ( 'NONE',  ( -3.249999999999999600, 2.247235782625080600, 5.541526766141773900E-016 ) ) ;
#10 = CIRCLE ( 'NONE', #8, 5.800000000000001600 ) ;
#11 = DIRECTION ( 'NONE',  ( -0.0000000000000000000, -1.000000000000000000, -0.0000000000000000000 ) ) ;
#12 = DIRECTION ( 'NONE',  ( 0.0000000000000000000, 0.0000000000000000000, -1.000000000000000000 ) ) ;
#13 = DIRECTION ( 'NONE',  ( -0.0000000000000000000, -1.000000000000000000, -0.0000000000000000000 ) ) ;
#14 = CARTESIAN_POINT ( 'NONE',  ( 0.0000000000000000000, 2.247235782625080600, 0.0000000000000000000 ) ) ;
#15 = AXIS2_PLACEMENT_3D ( 'NONE', #14, #13, #12 ) ;
#16 = CIRCLE ( 'NONE', #15, 3.249999999999999600 ) ;
#17 = DIRECTION ( 'NONE',  ( 1.000000000000000000, 0.0000000000000000000, 0.0000000000000000000 ) ) ;
#18 = DIRECTION ( 'NONE',  ( 0.0000000000000000000, 0.0000000000000000000, 1.000000000000000000 ) ) ;
#19 = CARTESIAN_POINT ( 'NONE',  ( 0.0000000000000000000, 14.83443165779918600, 0.0000000000000000000 ) ) ;
#20 = CYLINDRICAL_SURFACE ( 'NONE', #2, 6.000000000000000000 ) ;
#21 = FACE_OUTER_BOUND ( 'NONE', #76, .T. ) ;
#22 = PRODUCT_DEFINITION_FORMATION_WITH_SPECIFIED_SOURCE ( 'ANY', '', #242, .NOT_KNOWN. ) ;
#23 = CC_DESIGN_DATE_AND_TIME_ASSIGNMENT ( #25, #24, ( #201 ) ) ;
#24 = DATE_TIME_ROLE ( 'creation_date' ) ;
#25 = DATE_AND_TIME ( #30, #31 ) ;
#26 = ADVANCED_FACE ( 'NONE', ( #21 ), #58, .F. ) ;
#27 = EDGE_CURVE ( 'NONE', #63, #83, #16, .T. ) ;
#28 = DIRECTION ( 'NONE',  ( 0.0000000000000000000, 0.0000000000000000000, -1.000000000000000000 ) ) ;
#29 = CARTESIAN_POINT ( 'NONE',  ( 0.0000000000000000000, 14.83443165779918600, 0.0000000000000000000 ) ) ;
#30 = CALENDAR_DATE ( 2012, 30, 3 ) ;
#31 = LOCAL_TIME ( 14, 5, 23.00000000000000000, #32 ) ;
#32 = COORDINATED_UNIVERSAL_TIME_OFFSET ( 5, 0, .BEHIND. ) ;
#33 = CIRCLE ( 'NONE', #41, 12.99999999999999800 ) ;
#34 = PERSON_AND_ORGANIZATION ( #273, #272 ) ;
#35 = CC_DESIGN_APPROVAL ( #198, ( #201 ) ) ;
#36 = LOCAL_TIME ( 14, 5, 23.00000000000000000, #195 ) ;
#37 = DIRECTION ( 'NONE',  ( 0.0000000000000000000, 0.0000000000000000000, -1.000000000000000000 ) ) ;
#38 = DIRECTION ( 'NONE',  ( -0.0000000000000000000, -1.000000000000000000, -0.0000000000000000000 ) ) ;
#39 = CARTESIAN_POINT ( 'NONE',  ( 0.0000000000000000000, 3.200000000000000200, 0.0000000000000000000 ) ) ;
#40 = AXIS2_PLACEMENT_3D ( 'NONE', #39, #38, #37 ) ;
#41 = AXIS2_PLACEMENT_3D ( 'NONE', #29, #28, #192 ) ;
#42 = DIRECTION ( 'NONE',  ( 0.0000000000000000000, 0.0000000000000000000, -1.000000000000000000 ) ) ;
#43 = CIRCLE ( 'NONE', #40, 5.800000000000001600 ) ;
#44 = EDGE_LOOP ( 'NONE', ( #123, #53 ) ) ;
#45 = ORIENTED_EDGE ( 'NONE', *, *, #61, .T. ) ;
#46 = ORIENTED_EDGE ( 'NONE', *, *, #110, .T. ) ;
#47 = ORIENTED_EDGE ( 'NONE', *, *, #71, .F. ) ;
#48 = EDGE_CURVE ( 'NONE', #72, #62, #10, .T. ) ;
#49 = ADVANCED_FACE ( 'NONE', ( #4 ), #20, .T. ) ;
#50 = ORIENTED_EDGE ( 'NONE', *, *, #81, .F. ) ;
#51 = ORIENTED_EDGE ( 'NONE', *, *, #112, .T. ) ;
#52 = ORIENTED_EDGE ( 'NONE', *, *, #85, .T. ) ;
#53 = ORIENTED_EDGE ( 'NONE', *, *, #86, .F. ) ;
#54 = ORIENTED_EDGE ( 'NONE', *, *, #89, .F. ) ;
#55 = ORIENTED_EDGE ( 'NONE', *, *, #126, .T. ) ;
#56 = ORIENTED_EDGE ( 'NONE', *, *, #48, .T. ) ;
#57 = CLOSED_SHELL ( 'NONE', ( #26, #98, #87, #79, #109, #49, #113, #119 ) ) ;
#58 = SPHERICAL_SURFACE ( 'NONE', #104, 12.99999999999999800 ) ;
#59 = ORIENTED_EDGE ( 'NONE', *, *, #128, .T. ) ;
#60 = ORIENTED_EDGE ( 'NONE', *, *, #80, .T. ) ;
#61 = EDGE_CURVE ( 'NONE', #62, #72, #43, .T. ) ;
#62 = VERTEX_POINT ( 'NONE', #93 ) ;
#63 = VERTEX_POINT ( 'NONE', #9 ) ;
#64 = EDGE_LOOP ( 'NONE', ( #100, #99, #131, #132 ) ) ;
#65 = ORIENTED_EDGE ( 'NONE', *, *, #81, .T. ) ;
#66 = EDGE_CURVE ( 'NONE', #72, #68, #33, .T. ) ;
#67 = EDGE_CURVE ( 'NONE', #94, #63, #248, .T. ) ;
#68 = VERTEX_POINT ( 'NONE', #249 ) ;
#69 = VERTEX_POINT ( 'NONE', #274 ) ;
#70 = ORIENTED_EDGE ( 'NONE', *, *, #71, .T. ) ;
#71 = EDGE_CURVE ( 'NONE', #83, #68, #172, .T. ) ;
#72 = VERTEX_POINT ( 'NONE', #145 ) ;
#73 = EDGE_LOOP ( 'NONE', ( #59, #60 ) ) ;
#74 = ORIENTED_EDGE ( 'NONE', *, *, #27, .F. ) ;
#75 = ORIENTED_EDGE ( 'NONE', *, *, #89, .T. ) ;
#76 = EDGE_LOOP ( 'NONE', ( #82, #65, #95, #70, #84 ) ) ;
#77 = ORIENTED_EDGE ( 'NONE', *, *, #108, .T. ) ;
#78 = EDGE_CURVE ( 'NONE', #69, #96, #261, .T. ) ;
#79 = ADVANCED_FACE ( 'NONE', ( #263, #143 ), #141, .T. ) ;
#80 = EDGE_CURVE ( 'NONE', #97, #129, #245, .T. ) ;
#81 = EDGE_CURVE ( 'NONE', #62, #63, #266, .T. ) ;
#82 = ORIENTED_EDGE ( 'NONE', *, *, #61, .F. ) ;
#83 = VERTEX_POINT ( 'NONE', #250 ) ;
#84 = ORIENTED_EDGE ( 'NONE', *, *, #66, .F. ) ;
#85 = EDGE_CURVE ( 'NONE', #69, #129, #214, .T. ) ;
#86 = EDGE_CURVE ( 'NONE', #130, #88, #183, .T. ) ;
#87 = ADVANCED_FACE ( 'NONE', ( #276 ), #256, .F. ) ;
#88 = VERTEX_POINT ( 'NONE', #275 ) ;
#89 = EDGE_CURVE ( 'NONE', #94, #130, #229, .T. ) ;
#90 = CALENDAR_DATE ( 2012, 30, 3 ) ;
#91 = CC_DESIGN_PERSON_AND_ORGANIZATION_ASSIGNMENT ( #34, #92, ( #201 ) ) ;
#92 = PERSON_AND_ORGANIZATION_ROLE ( 'creator' ) ;
#93 = CARTESIAN_POINT ( 'NONE',  ( -5.800000000000003400, 3.199999999999999700, 7.102951435054650600E-016 ) ) ;
#94 = VERTEX_POINT ( 'NONE', #230 ) ;
#95 = ORIENTED_EDGE ( 'NONE', *, *, #27, .T. ) ;
#96 = VERTEX_POINT ( 'NONE', #224 ) ;
#97 = VERTEX_POINT ( 'NONE', #135 ) ;
#98 = ADVANCED_FACE ( 'NONE', ( #240 ), #278, .T. ) ;
#99 = ORIENTED_EDGE ( 'NONE', *, *, #101, .T. ) ;
#100 = ORIENTED_EDGE ( 'NONE', *, *, #78, .T. ) ;
#101 = EDGE_CURVE ( 'NONE', #96, #97, #220, .T. ) ;
#102 = EDGE_LOOP ( 'NONE', ( #127, #75, #125, #124, #74 ) ) ;
#103 = EDGE_LOOP ( 'NONE', ( #56, #45 ) ) ;
#104 = AXIS2_PLACEMENT_3D ( 'NONE', #19, #18, #17 ) ;
#105 = EDGE_LOOP ( 'NONE', ( #50, #111, #114, #46, #117 ) ) ;
#106 = ORIENTED_EDGE ( 'NONE', *, *, #80, .F. ) ;
#107 = ORIENTED_EDGE ( 'NONE', *, *, #110, .F. ) ;
#108 = EDGE_CURVE ( 'NONE', #88, #130, #236, .T. ) ;
#109 = ADVANCED_FACE ( 'NONE', ( #239 ), #223, .F. ) ;
#110 = EDGE_CURVE ( 'NONE', #68, #94, #179, .T. ) ;
#111 = ORIENTED_EDGE ( 'NONE', *, *, #48, .F. ) ;
#112 = EDGE_CURVE ( 'NONE', #96, #69, #260, .T. ) ;
#113 = ADVANCED_FACE ( 'NONE', ( #165 ), #180, .F. ) ;
#114 = ORIENTED_EDGE ( 'NONE', *, *, #66, .T. ) ;
#115 = EDGE_LOOP ( 'NONE', ( #122, #118 ) ) ;
#116 = ORIENTED_EDGE ( 'NONE', *, *, #101, .F. ) ;
#117 = ORIENTED_EDGE ( 'NONE', *, *, #67, .T. ) ;
#118 = ORIENTED_EDGE ( 'NONE', *, *, #112, .F. ) ;
#119 = ADVANCED_FACE ( 'NONE', ( #182, #164 ), #171, .F. ) ;
#120 = EDGE_LOOP ( 'NONE', ( #116, #51, #52, #106 ) ) ;
#121 = EDGE_LOOP ( 'NONE', ( #54, #107, #47, #55, #77 ) ) ;
#122 = ORIENTED_EDGE ( 'NONE', *, *, #78, .F. ) ;
#123 = ORIENTED_EDGE ( 'NONE', *, *, #108, .F. ) ;
#124 = ORIENTED_EDGE ( 'NONE', *, *, #126, .F. ) ;
#125 = ORIENTED_EDGE ( 'NONE', *, *, #86, .T. ) ;
#126 = EDGE_CURVE ( 'NONE', #83, #88, #157, .T. ) ;
#127 = ORIENTED_EDGE ( 'NONE', *, *, #67, .F. ) ;
#128 = EDGE_CURVE ( 'NONE', #129, #97, #170, .T. ) ;
#129 = VERTEX_POINT ( 'NONE', #153 ) ;
#130 = VERTEX_POINT ( 'NONE', #148 ) ;
#131 = ORIENTED_EDGE ( 'NONE', *, *, #128, .F. ) ;
#132 = ORIENTED_EDGE ( 'NONE', *, *, #85, .F. ) ;
#133 = DATE_AND_TIME ( #90, #36 ) ;
#134 = CARTESIAN_POINT ( 'NONE',  ( 0.0000000000000000000, 0.0000000000000000000, 0.0000000000000000000 ) ) ;
#135 = CARTESIAN_POINT ( 'NONE',  ( 7.347880794884119700E-016, -9.797174393178831600E-016, 6.000000000000000000 ) ) ;
#136 = DIRECTION ( 'NONE',  ( 0.0000000000000000000, 0.0000000000000000000, -1.000000000000000000 ) ) ;
#137 = DIRECTION ( 'NONE',  ( -0.0000000000000000000, -1.000000000000000000, -0.0000000000000000000 ) ) ;
#138 = CARTESIAN_POINT ( 'NONE',  ( 0.0000000000000000000, 2.247235782625080600, 0.0000000000000000000 ) ) ;
#139 = AXIS2_PLACEMENT_3D ( 'NONE', #140, #213, #174 ) ;
#140 = CARTESIAN_POINT ( 'NONE',  ( 0.0000000000000000000, 0.0000000000000000000, 0.0000000000000000000 ) ) ;
#141 = PLANE ( 'NONE',  #144 ) ;
#142 = AXIS2_PLACEMENT_3D ( 'NONE', #233, #232, #215 ) ;
#143 = FACE_BOUND ( 'NONE', #44, .T. ) ;
#144 = AXIS2_PLACEMENT_3D ( 'NONE', #262, #235, #234 ) ;
#145 = CARTESIAN_POINT ( 'NONE',  ( 5.800000000000003400, 3.199999999999999700, 0.0000000000000000000 ) ) ;
#146 =( NAMED_UNIT ( * ) PLANE_ANGLE_UNIT ( ) SI_UNIT ( $, .RADIAN. ) );
#147 =( LENGTH_UNIT ( ) NAMED_UNIT ( * ) SI_UNIT ( .MILLI., .METRE. ) );
#148 = CARTESIAN_POINT ( 'NONE',  ( 3.980102097228897200E-016, -1.316495309083405200E-015, 3.249999999999999600 ) ) ;
#149 = DIRECTION ( 'NONE',  ( 0.0000000000000000000, 0.0000000000000000000, -1.000000000000000000 ) ) ;
#150 = DIRECTION ( 'NONE',  ( -0.0000000000000000000, -1.000000000000000000, -0.0000000000000000000 ) ) ;
#151 = CARTESIAN_POINT ( 'NONE',  ( 0.0000000000000000000, -9.797174393178831600E-016, 0.0000000000000000000 ) ) ;
#152 = AXIS2_PLACEMENT_3D ( 'NONE', #151, #150, #149 ) ;
#153 = CARTESIAN_POINT ( 'NONE',  ( 0.0000000000000000000, -9.797174393178831600E-016, -6.000000000000000000 ) ) ;
#154 = DIRECTION ( 'NONE',  ( -0.0000000000000000000, -1.000000000000000000, -0.0000000000000000000 ) ) ;
#155 = VECTOR ( 'NONE', #154, 1000.000000000000000 ) ;
#156 = CARTESIAN_POINT ( 'NONE',  ( 0.0000000000000000000, 0.0000000000000000000, -3.249999999999999600 ) ) ;
#157 = LINE ( 'NONE', #156, #155 ) ;
#158 = DIRECTION ( 'NONE',  ( 0.0000000000000000000, 0.0000000000000000000, -1.000000000000000000 ) ) ;
#159 = DIRECTION ( 'NONE',  ( 0.0000000000000000000, -1.000000000000000000, -0.0000000000000000000 ) ) ;
#160 = CARTESIAN_POINT ( 'NONE',  ( 5.800000000000001600, 3.199999999999999700, 0.0000000000000000000 ) ) ;
#161 = AXIS2_PLACEMENT_3D ( 'NONE', #160, #159, #158 ) ;
#162 = DIRECTION ( 'NONE',  ( 1.000000000000000000, 0.0000000000000000000, 0.0000000000000000000 ) ) ;
#163 = DIRECTION ( 'NONE',  ( 0.0000000000000000000, 0.0000000000000000000, 1.000000000000000000 ) ) ;
#164 = FACE_BOUND ( 'NONE', #103, .T. ) ;
#165 = FACE_OUTER_BOUND ( 'NONE', #105, .T. ) ;
#166 = DIRECTION ( 'NONE',  ( 0.0000000000000000000, 0.0000000000000000000, -1.000000000000000000 ) ) ;
#167 = DIRECTION ( 'NONE',  ( -0.0000000000000000000, -1.000000000000000000, -0.0000000000000000000 ) ) ;
#168 = CARTESIAN_POINT ( 'NONE',  ( 0.0000000000000000000, 3.199999999999999700, 0.0000000000000000000 ) ) ;
#169 = AXIS2_PLACEMENT_3D ( 'NONE', #268, #163, #162 ) ;
#170 = CIRCLE ( 'NONE', #152, 6.000000000000000000 ) ;
#171 = PLANE ( 'NONE',  #161 ) ;
#172 = CIRCLE ( 'NONE', #216, 3.249999999999999600 ) ;
#173 = AXIS2_PLACEMENT_3D ( 'NONE', #238, #225, #222 ) ;
#174 = DIRECTION ( 'NONE',  ( 0.0000000000000000000, 0.0000000000000000000, -1.000000000000000000 ) ) ;
#175 = DIRECTION ( 'NONE',  ( -0.0000000000000000000, -1.000000000000000000, -0.0000000000000000000 ) ) ;
#176 = DIRECTION ( 'NONE',  ( 0.0000000000000000000, 0.0000000000000000000, -1.000000000000000000 ) ) ;
#177 = DIRECTION ( 'NONE',  ( -0.0000000000000000000, -1.000000000000000000, -0.0000000000000000000 ) ) ;
#178 = CARTESIAN_POINT ( 'NONE',  ( 0.0000000000000000000, 2.247235782625080600, 0.0000000000000000000 ) ) ;
#179 = CIRCLE ( 'NONE', #208, 3.249999999999999600 ) ;
#180 = SPHERICAL_SURFACE ( 'NONE', #169, 12.99999999999999800 ) ;
#181 = DIRECTION ( 'NONE',  ( 0.0000000000000000000, 0.0000000000000000000, -1.000000000000000000 ) ) ;
#182 = FACE_OUTER_BOUND ( 'NONE', #115, .T. ) ;
#183 = CIRCLE ( 'NONE', #212, 3.249999999999999600 ) ;
#184 = DIRECTION ( 'NONE',  ( 0.0000000000000000000, 0.0000000000000000000, 1.000000000000000000 ) ) ;
#185 = DIRECTION ( 'NONE',  ( 1.000000000000000000, 0.0000000000000000000, 0.0000000000000000000 ) ) ;
#186 = AXIS2_PLACEMENT_3D ( 'NONE', #255, #184, #185 ) ;
#187 = APPLICATION_CONTEXT ( 'configuration controlled 3d designs of mechanical parts and assemblies' ) ;
#188 = ADVANCED_BREP_SHAPE_REPRESENTATION ( 'WDS-401-2005F', ( #1, #186 ), #189 ) ;
#189 =( GEOMETRIC_REPRESENTATION_CONTEXT ( 3 ) GLOBAL_UNCERTAINTY_ASSIGNED_CONTEXT ( ( #190 ) ) GLOBAL_UNIT_ASSIGNED_CONTEXT ( ( #147, #146, #191 ) ) REPRESENTATION_CONTEXT ( 'NONE', 'WORKASPACE' ) );
#190 = UNCERTAINTY_MEASURE_WITH_UNIT (LENGTH_MEASURE( 1.000000000000000100E-005 ), #147, 'distance_accuracy_value', 'NONE');
#191 =( NAMED_UNIT ( * ) SI_UNIT ( $, .STERADIAN. ) SOLID_ANGLE_UNIT ( ) );
#192 = DIRECTION ( 'NONE',  ( -1.000000000000000000, 0.0000000000000000000, 0.0000000000000000000 ) ) ;
#193 = CARTESIAN_POINT ( 'NONE',  ( 0.0000000000000000000, 3.199999999999999700, 0.0000000000000000000 ) ) ;
#194 = AXIS2_PLACEMENT_3D ( 'NONE', #193, #247, #246 ) ;
#195 = COORDINATED_UNIVERSAL_TIME_OFFSET ( 5, 0, .BEHIND. ) ;
#196 = APPROVAL_PERSON_ORGANIZATION ( #200, #198, #197 ) ;
#197 = APPROVAL_ROLE ( '' ) ;
#198 = APPROVAL ( #199, 'UNSPECIFIED' ) ;
#199 = APPROVAL_STATUS ( 'not_yet_approved' ) ;
#200 = PERSON_AND_ORGANIZATION ( #273, #272 ) ;
#201 = PRODUCT_DEFINITION ( 'UNKNOWN', '', #22, #202 ) ;
#202 = DESIGN_CONTEXT ( 'detailed design', #204, 'design' ) ;
#203 = APPLICATION_PROTOCOL_DEFINITION ( 'international standard', 'config_control_design', 1994, #204 ) ;
#204 = APPLICATION_CONTEXT ( 'configuration controlled 3d designs of mechanical parts and assemblies' ) ;
#205 = CC_DESIGN_PERSON_AND_ORGANIZATION_ASSIGNMENT ( #271, #270, ( #242 ) ) ;
#206 = DIRECTION ( 'NONE',  ( -0.0000000000000000000, -1.000000000000000000, -0.0000000000000000000 ) ) ;
#207 = CARTESIAN_POINT ( 'NONE',  ( 0.0000000000000000000, -1.316495309083405200E-015, 0.0000000000000000000 ) ) ;
#208 = AXIS2_PLACEMENT_3D ( 'NONE', #178, #177, #176 ) ;
#209 = AXIS2_PLACEMENT_3D ( 'NONE', #237, #175, #181 ) ;
#210 = DIRECTION ( 'NONE',  ( -0.0000000000000000000, -1.000000000000000000, -0.0000000000000000000 ) ) ;
#211 = VECTOR ( 'NONE', #210, 1000.000000000000000 ) ;
#212 = AXIS2_PLACEMENT_3D ( 'NONE', #259, #258, #257 ) ;
#213 = DIRECTION ( 'NONE',  ( -0.0000000000000000000, -1.000000000000000000, -0.0000000000000000000 ) ) ;
#214 = LINE ( 'NONE', #265, #264 ) ;
#215 = DIRECTION ( 'NONE',  ( 1.000000000000000000, 0.0000000000000000000, -1.224646799147353200E-016 ) ) ;
#216 = AXIS2_PLACEMENT_3D ( 'NONE', #138, #137, #136 ) ;
#217 = DIRECTION ( 'NONE',  ( 0.0000000000000000000, 0.0000000000000000000, -1.000000000000000000 ) ) ;
#218 = DIRECTION ( 'NONE',  ( -0.0000000000000000000, -1.000000000000000000, -0.0000000000000000000 ) ) ;
#219 = CARTESIAN_POINT ( 'NONE',  ( 7.347880794884119700E-016, 0.0000000000000000000, 6.000000000000000000 ) ) ;
#220 = LINE ( 'NONE', #219, #211 ) ;
#221 = AXIS2_PLACEMENT_3D ( 'NONE', #207, #206, #269 ) ;
#222 = DIRECTION ( 'NONE',  ( 0.0000000000000000000, 0.0000000000000000000, -1.000000000000000000 ) ) ;
#223 = CYLINDRICAL_SURFACE ( 'NONE', #209, 3.249999999999999600 ) ;
#224 = CARTESIAN_POINT ( 'NONE',  ( 7.347880794884119700E-016, 3.199999999999999700, 6.000000000000000000 ) ) ;
#225 = DIRECTION ( 'NONE',  ( -0.0000000000000000000, -1.000000000000000000, -0.0000000000000000000 ) ) ;
#226 = DIRECTION ( 'NONE',  ( -0.0000000000000000000, -1.000000000000000000, -0.0000000000000000000 ) ) ;
#227 = VECTOR ( 'NONE', #226, 1000.000000000000000 ) ;
#228 = CARTESIAN_POINT ( 'NONE',  ( 3.980102097228897200E-016, 0.0000000000000000000, 3.249999999999999600 ) ) ;
#229 = LINE ( 'NONE', #228, #227 ) ;
#230 = CARTESIAN_POINT ( 'NONE',  ( 3.980102097228897200E-016, 2.247235782625080600, 3.249999999999999600 ) ) ;
#231 = CARTESIAN_POINT ( 'NONE',  ( 0.0000000000000000000, 2.247235782625080600, 0.0000000000000000000 ) ) ;
#232 = DIRECTION ( 'NONE',  ( 1.224646799147353200E-016, -0.0000000000000000000, 1.000000000000000000 ) ) ;
#233 = CARTESIAN_POINT ( 'NONE',  ( 0.0000000000000000000, 14.83443165779918600, 0.0000000000000000000 ) ) ;
#234 = DIRECTION ( 'NONE',  ( 0.0000000000000000000, 0.0000000000000000000, -1.000000000000000000 ) ) ;
#235 = DIRECTION ( 'NONE',  ( 0.0000000000000000000, -1.000000000000000000, -0.0000000000000000000 ) ) ;
#236 = CIRCLE ( 'NONE', #221, 3.249999999999999600 ) ;
#237 = CARTESIAN_POINT ( 'NONE',  ( 0.0000000000000000000, 0.0000000000000000000, 0.0000000000000000000 ) ) ;
#238 = CARTESIAN_POINT ( 'NONE',  ( 0.0000000000000000000, 0.0000000000000000000, 0.0000000000000000000 ) ) ;
#239 = FACE_OUTER_BOUND ( 'NONE', #121, .T. ) ;
#240 = FACE_OUTER_BOUND ( 'NONE', #64, .T. ) ;
#241 = AXIS2_PLACEMENT_3D ( 'NONE', #231, #218, #217 ) ;
#242 = PRODUCT ( 'WDS-401-2005F', 'WDS-401-2005F', '', ( #243 ) ) ;
#243 = MECHANICAL_CONTEXT ( 'NONE', #187, 'mechanical' ) ;
#244 = APPLICATION_PROTOCOL_DEFINITION ( 'international standard', 'config_control_design', 1994, #187 ) ;
#245 = CIRCLE ( 'NONE', #254, 6.000000000000000000 ) ;
#246 = DIRECTION ( 'NONE',  ( 0.0000000000000000000, 0.0000000000000000000, -1.000000000000000000 ) ) ;
#247 = DIRECTION ( 'NONE',  ( -0.0000000000000000000, -1.000000000000000000, -0.0000000000000000000 ) ) ;
#248 = CIRCLE ( 'NONE', #241, 3.249999999999999600 ) ;
#249 = CARTESIAN_POINT ( 'NONE',  ( 3.249999999999999600, 2.247235782625080600, 0.0000000000000000000 ) ) ;
#250 = CARTESIAN_POINT ( 'NONE',  ( 0.0000000000000000000, 2.247235782625080600, -3.249999999999999600 ) ) ;
#251 = DIRECTION ( 'NONE',  ( 0.0000000000000000000, 0.0000000000000000000, -1.000000000000000000 ) ) ;
#252 = DIRECTION ( 'NONE',  ( -0.0000000000000000000, -1.000000000000000000, -0.0000000000000000000 ) ) ;
#253 = CARTESIAN_POINT ( 'NONE',  ( 0.0000000000000000000, -9.797174393178831600E-016, 0.0000000000000000000 ) ) ;
#254 = AXIS2_PLACEMENT_3D ( 'NONE', #253, #252, #251 ) ;
#255 = CARTESIAN_POINT ( 'NONE',  ( 0.0000000000000000000, 0.0000000000000000000, 0.0000000000000000000 ) ) ;
#256 = CYLINDRICAL_SURFACE ( 'NONE', #139, 3.249999999999999600 ) ;
#257 = DIRECTION ( 'NONE',  ( 0.0000000000000000000, 0.0000000000000000000, -1.000000000000000000 ) ) ;
#258 = DIRECTION ( 'NONE',  ( -0.0000000000000000000, -1.000000000000000000, -0.0000000000000000000 ) ) ;
#259 = CARTESIAN_POINT ( 'NONE',  ( 0.0000000000000000000, -1.316495309083405200E-015, 0.0000000000000000000 ) ) ;
#260 = CIRCLE ( 'NONE', #267, 6.000000000000000000 ) ;
#261 = CIRCLE ( 'NONE', #194, 6.000000000000000000 ) ;
#262 = CARTESIAN_POINT ( 'NONE',  ( 6.000000000000000000, -1.148106374200644200E-015, 0.0000000000000000000 ) ) ;
#263 = FACE_OUTER_BOUND ( 'NONE', #73, .T. ) ;
#264 = VECTOR ( 'NONE', #277, 1000.000000000000000 ) ;
#265 = CARTESIAN_POINT ( 'NONE',  ( 0.0000000000000000000, 0.0000000000000000000, -6.000000000000000000 ) ) ;
#266 = CIRCLE ( 'NONE', #142, 12.99999999999999800 ) ;
#267 = AXIS2_PLACEMENT_3D ( 'NONE', #168, #167, #166 ) ;
#268 = CARTESIAN_POINT ( 'NONE',  ( 0.0000000000000000000, 14.83443165779918600, 0.0000000000000000000 ) ) ;
#269 = DIRECTION ( 'NONE',  ( 0.0000000000000000000, 0.0000000000000000000, -1.000000000000000000 ) ) ;
#270 = PERSON_AND_ORGANIZATION_ROLE ( 'design_owner' ) ;
#271 = PERSON_AND_ORGANIZATION ( #273, #272 ) ;
#272 = ORGANIZATION ( 'UNSPECIFIED', 'UNSPECIFIED', '' ) ;
#273 = PERSON ( 'UNSPECIFIED', 'UNSPECIFIED', 'UNSPECIFIED', ('UNSPECIFIED'), ('UNSPECIFIED'), ('UNSPECIFIED') ) ;
#274 = CARTESIAN_POINT ( 'NONE',  ( 0.0000000000000000000, 3.199999999999999700, -6.000000000000000000 ) ) ;
#275 = CARTESIAN_POINT ( 'NONE',  ( 0.0000000000000000000, -1.316495309083405200E-015, -3.249999999999999600 ) ) ;
#276 = FACE_OUTER_BOUND ( 'NONE', #102, .T. ) ;
#277 = DIRECTION ( 'NONE',  ( -0.0000000000000000000, -1.000000000000000000, -0.0000000000000000000 ) ) ;
#278 = CYLINDRICAL_SURFACE ( 'NONE', #173, 6.000000000000000000 ) ;
#279 = APPROVAL ( #287, 'UNSPECIFIED' ) ;
#280 = PERSON_AND_ORGANIZATION ( #273, #272 ) ;
#281 = PERSON_AND_ORGANIZATION_ROLE ( 'creator' ) ;
#282 = CALENDAR_DATE ( 2012, 30, 3 ) ;
#283 = LOCAL_TIME ( 14, 5, 23.00000000000000000, #289 ) ;
#284 = APPROVAL_DATE_TIME ( #286, #279 ) ;
#285 = APPROVAL_ROLE ( '' ) ;
#286 = DATE_AND_TIME ( #282, #283 ) ;
#287 = APPROVAL_STATUS ( 'not_yet_approved' ) ;
#288 = PERSON_AND_ORGANIZATION ( #273, #272 ) ;
#289 = COORDINATED_UNIVERSAL_TIME_OFFSET ( 5, 0, .BEHIND. ) ;
#290 = APPROVAL_PERSON_ORGANIZATION ( #288, #279, #285 ) ;
#291 = CC_DESIGN_APPROVAL ( #279, ( #22 ) ) ;
#292 = PERSON_AND_ORGANIZATION_ROLE ( 'classification_officer' ) ;
#293 = SECURITY_CLASSIFICATION ( '', '', #297 ) ;
#294 = CC_DESIGN_PERSON_AND_ORGANIZATION_ASSIGNMENT ( #301, #292, ( #293 ) ) ;
#295 = PRODUCT_RELATED_PRODUCT_CATEGORY ( 'detail', '', ( #242 ) ) ;
#296 = CC_DESIGN_SECURITY_CLASSIFICATION ( #293, ( #22 ) ) ;
#297 = SECURITY_CLASSIFICATION_LEVEL ( 'unclassified' ) ;
#298 = CC_DESIGN_PERSON_AND_ORGANIZATION_ASSIGNMENT ( #280, #281, ( #22 ) ) ;
#299 = SHAPE_DEFINITION_REPRESENTATION ( #300, #188 ) ;
#300 = PRODUCT_DEFINITION_SHAPE ( 'NONE', 'NONE',  #201 ) ;
#301 = PERSON_AND_ORGANIZATION ( #273, #272 ) ;
#302 = PERSON_AND_ORGANIZATION ( #273, #272 ) ;
#303 = CC_DESIGN_DATE_AND_TIME_ASSIGNMENT ( #315, #304, ( #293 ) ) ;
#304 = DATE_TIME_ROLE ( 'classification_date' ) ;
#305 = COORDINATED_UNIVERSAL_TIME_OFFSET ( 5, 0, .BEHIND. ) ;
#306 = CC_DESIGN_APPROVAL ( #311, ( #293 ) ) ;
#307 = APPROVAL_DATE_TIME ( #318, #311 ) ;
#308 = APPROVAL_STATUS ( 'not_yet_approved' ) ;
#309 = APPROVAL_PERSON_ORGANIZATION ( #302, #311, #310 ) ;
#310 = APPROVAL_ROLE ( '' ) ;
#311 = APPROVAL ( #308, 'UNSPECIFIED' ) ;
#312 = CC_DESIGN_PERSON_AND_ORGANIZATION_ASSIGNMENT ( #313, #314, ( #22 ) ) ;
#313 = PERSON_AND_ORGANIZATION ( #273, #272 ) ;
#314 = PERSON_AND_ORGANIZATION_ROLE ( 'design_supplier' ) ;
#315 = DATE_AND_TIME ( #316, #317 ) ;
#316 = CALENDAR_DATE ( 2012, 30, 3 ) ;
#317 = LOCAL_TIME ( 14, 5, 23.00000000000000000, #305 ) ;
#318 = DATE_AND_TIME ( #319, #320 ) ;
#319 = CALENDAR_DATE ( 2012, 30, 3 ) ;
#320 = LOCAL_TIME ( 14, 5, 23.00000000000000000, #321 ) ;
#321 = COORDINATED_UNIVERSAL_TIME_OFFSET ( 5, 0, .BEHIND. ) ;
ENDSEC;
END-ISO-10303-21;
