ISO-10303-21;
HEADER;
FILE_DESCRIPTION (( 'STEP AP203' ),
    '1' );
FILE_NAME ('WDS-401-2004F.step',
    '2011-11-23T14:33:16',
    ( 'SysAdmin' ),
    ( 'SolidWorks' ),
    'SwSTEP 2.0',
    'SolidWorks 2012',
    '' );
FILE_SCHEMA (( 'CONFIG_CONTROL_DESIGN' ));
ENDSEC;

DATA;
#1 = CARTESIAN_POINT ( 'NONE',  ( 0.0000000000000000000, 14.83443165779918600, 0.0000000000000000000 ) ) ;
#2 = CARTESIAN_POINT ( 'NONE',  ( 0.0000000000000000000, -1.377727649040772800E-015, 0.0000000000000000000 ) ) ;
#3 = EDGE_LOOP ( 'NONE', ( #44, #10, #155, #53 ) ) ;
#4 = ORIENTED_EDGE ( 'NONE', *, *, #268, .F. ) ;
#5 = VERTEX_POINT ( 'NONE', #66 ) ;
#6 = VERTEX_POINT ( 'NONE', #65 ) ;
#7 = EDGE_LOOP ( 'NONE', ( #41, #157 ) ) ;
#8 = ORIENTED_EDGE ( 'NONE', *, *, #306, .F. ) ;
#9 = EDGE_LOOP ( 'NONE', ( #40, #11 ) ) ;
#10 = ORIENTED_EDGE ( 'NONE', *, *, #316, .T. ) ;
#11 = ORIENTED_EDGE ( 'NONE', *, *, #316, .F. ) ;
#12 = EDGE_LOOP ( 'NONE', ( #15, #54 ) ) ;
#13 = ORIENTED_EDGE ( 'NONE', *, *, #308, .F. ) ;
#14 = ORIENTED_EDGE ( 'NONE', *, *, #274, .F. ) ;
#15 = ORIENTED_EDGE ( 'NONE', *, *, #266, .T. ) ;
#16 = VERTEX_POINT ( 'NONE', #64 ) ;
#17 = ORIENTED_EDGE ( 'NONE', *, *, #287, .T. ) ;
#18 = DIRECTION ( 'NONE',  ( -0.0000000000000000000, -1.000000000000000000, -0.0000000000000000000 ) ) ;
#19 = DIRECTION ( 'NONE',  ( 0.0000000000000000000, 0.0000000000000000000, -1.000000000000000000 ) ) ;
#20 = LINE ( 'NONE', #143, #226 ) ;
#21 = ORIENTED_EDGE ( 'NONE', *, *, #273, .T. ) ;
#22 = ORIENTED_EDGE ( 'NONE', *, *, #267, .F. ) ;
#23 =( NAMED_UNIT ( * ) SI_UNIT ( $, .STERADIAN. ) SOLID_ANGLE_UNIT ( ) );
#24 = ORIENTED_EDGE ( 'NONE', *, *, #261, .T. ) ;
#25 = ORIENTED_EDGE ( 'NONE', *, *, #306, .T. ) ;
#26 = CARTESIAN_POINT ( 'NONE',  ( 0.0000000000000000000, 2.128625898226125500, 0.0000000000000000000 ) ) ;
#27 = DIRECTION ( 'NONE',  ( -0.0000000000000000000, -1.000000000000000000, -0.0000000000000000000 ) ) ;
#28 = CARTESIAN_POINT ( 'NONE',  ( 0.0000000000000000000, 0.0000000000000000000, -6.000000000000000000 ) ) ;
#29 = DIRECTION ( 'NONE',  ( 1.224646799147353200E-016, -0.0000000000000000000, 1.000000000000000000 ) ) ;
#30 = LINE ( 'NONE', #28, #214 ) ;
#31 = CARTESIAN_POINT ( 'NONE',  ( 0.0000000000000000000, -1.377727649040772800E-015, -2.750000000000000900 ) ) ;
#32 = DIRECTION ( 'NONE',  ( -0.0000000000000000000, -1.000000000000000000, -0.0000000000000000000 ) ) ;
#33 = DIRECTION ( 'NONE',  ( 0.0000000000000000000, 0.0000000000000000000, -1.000000000000000000 ) ) ;
#34 = DIRECTION ( 'NONE',  ( -0.0000000000000000000, -1.000000000000000000, -0.0000000000000000000 ) ) ;
#35 = ORIENTED_EDGE ( 'NONE', *, *, #268, .T. ) ;
#36 = DIRECTION ( 'NONE',  ( 0.0000000000000000000, 0.0000000000000000000, -1.000000000000000000 ) ) ;
#37 = CARTESIAN_POINT ( 'NONE',  ( 0.0000000000000000000, 3.200000000000000200, 0.0000000000000000000 ) ) ;
#38 = EDGE_LOOP ( 'NONE', ( #72, #25, #24, #22, #43 ) ) ;
#39 = DIRECTION ( 'NONE',  ( 0.0000000000000000000, 0.0000000000000000000, 1.000000000000000000 ) ) ;
#40 = ORIENTED_EDGE ( 'NONE', *, *, #277, .F. ) ;
#41 = ORIENTED_EDGE ( 'NONE', *, *, #265, .T. ) ;
#42 = ORIENTED_EDGE ( 'NONE', *, *, #267, .T. ) ;
#43 = ORIENTED_EDGE ( 'NONE', *, *, #284, .F. ) ;
#44 = ORIENTED_EDGE ( 'NONE', *, *, #275, .F. ) ;
#45 = VERTEX_POINT ( 'NONE', #63 ) ;
#46 = DIRECTION ( 'NONE',  ( 0.0000000000000000000, 0.0000000000000000000, 1.000000000000000000 ) ) ;
#47 = VERTEX_POINT ( 'NONE', #89 ) ;
#48 = ORIENTED_EDGE ( 'NONE', *, *, #265, .F. ) ;
#49 = ORIENTED_EDGE ( 'NONE', *, *, #275, .T. ) ;
#50 = APPLICATION_PROTOCOL_DEFINITION ( 'international standard', 'config_control_design', 1994, #319 ) ;
#51 = ORIENTED_EDGE ( 'NONE', *, *, #277, .T. ) ;
#52 = ORIENTED_EDGE ( 'NONE', *, *, #310, .T. ) ;
#53 = ORIENTED_EDGE ( 'NONE', *, *, #262, .F. ) ;
#54 = ORIENTED_EDGE ( 'NONE', *, *, #274, .T. ) ;
#55 = DIRECTION ( 'NONE',  ( 1.000000000000000000, 0.0000000000000000000, 0.0000000000000000000 ) ) ;
#56 = VERTEX_POINT ( 'NONE', #103 ) ;
#57 = CARTESIAN_POINT ( 'NONE',  ( 0.0000000000000000000, 0.0000000000000000000, 0.0000000000000000000 ) ) ;
#58 = VERTEX_POINT ( 'NONE', #100 ) ;
#59 = VERTEX_POINT ( 'NONE', #98 ) ;
#60 = SHAPE_DEFINITION_REPRESENTATION ( #258, #193 ) ;
#61 = DIRECTION ( 'NONE',  ( -0.0000000000000000000, -1.000000000000000000, -0.0000000000000000000 ) ) ;
#62 = DIRECTION ( 'NONE',  ( 0.0000000000000000000, 0.0000000000000000000, -1.000000000000000000 ) ) ;
#63 = CARTESIAN_POINT ( 'NONE',  ( 0.0000000000000000000, -9.797174393178831600E-016, -6.000000000000000000 ) ) ;
#64 = CARTESIAN_POINT ( 'NONE',  ( -5.800000000000003400, 3.199999999999999700, 7.102951435054650600E-016 ) ) ;
#65 = CARTESIAN_POINT ( 'NONE',  ( 0.0000000000000000000, 2.128625898226125500, -2.750000000000000900 ) ) ;
#66 = CARTESIAN_POINT ( 'NONE',  ( 3.367778697655222500E-016, 2.128625898226125500, 2.750000000000000900 ) ) ;
#67 = VERTEX_POINT ( 'NONE', #71 ) ;
#68 = VERTEX_POINT ( 'NONE', #93 ) ;
#69 = ORIENTED_EDGE ( 'NONE', *, *, #266, .F. ) ;
#70 = ORIENTED_EDGE ( 'NONE', *, *, #287, .F. ) ;
#71 = CARTESIAN_POINT ( 'NONE',  ( 2.750000000000000900, 2.128625898226125500, 0.0000000000000000000 ) ) ;
#72 = ORIENTED_EDGE ( 'NONE', *, *, #288, .F. ) ;
#73 = ORIENTED_EDGE ( 'NONE', *, *, #284, .T. ) ;
#74 = DIRECTION ( 'NONE',  ( -0.0000000000000000000, -1.000000000000000000, -0.0000000000000000000 ) ) ;
#75 = DIRECTION ( 'NONE',  ( -0.0000000000000000000, -1.000000000000000000, -0.0000000000000000000 ) ) ;
#76 = CARTESIAN_POINT ( 'NONE',  ( 0.0000000000000000000, 3.199999999999999700, 0.0000000000000000000 ) ) ;
#77 = DIRECTION ( 'NONE',  ( 1.000000000000000000, 0.0000000000000000000, 0.0000000000000000000 ) ) ;
#78 = CARTESIAN_POINT ( 'NONE',  ( 0.0000000000000000000, -9.797174393178831600E-016, 0.0000000000000000000 ) ) ;
#79 = ORIENTED_EDGE ( 'NONE', *, *, #308, .T. ) ;
#80 = DIRECTION ( 'NONE',  ( -0.0000000000000000000, -1.000000000000000000, -0.0000000000000000000 ) ) ;
#81 = DIRECTION ( 'NONE',  ( 0.0000000000000000000, 0.0000000000000000000, -1.000000000000000000 ) ) ;
#82 = DIRECTION ( 'NONE',  ( 0.0000000000000000000, 0.0000000000000000000, -1.000000000000000000 ) ) ;
#83 = DIRECTION ( 'NONE',  ( 1.000000000000000000, 0.0000000000000000000, -1.224646799147353200E-016 ) ) ;
#84 = CARTESIAN_POINT ( 'NONE',  ( 0.0000000000000000000, 2.128625898226125500, 0.0000000000000000000 ) ) ;
#85 = CARTESIAN_POINT ( 'NONE',  ( 0.0000000000000000000, 3.200000000000000200, 0.0000000000000000000 ) ) ;
#86 = DIRECTION ( 'NONE',  ( -0.0000000000000000000, -1.000000000000000000, -0.0000000000000000000 ) ) ;
#87 = DIRECTION ( 'NONE',  ( 0.0000000000000000000, 0.0000000000000000000, -1.000000000000000000 ) ) ;
#88 = DIRECTION ( 'NONE',  ( 0.0000000000000000000, 0.0000000000000000000, -1.000000000000000000 ) ) ;
#89 = CARTESIAN_POINT ( 'NONE',  ( 0.0000000000000000000, 3.199999999999999700, -6.000000000000000000 ) ) ;
#90 = DIRECTION ( 'NONE',  ( 0.0000000000000000000, 0.0000000000000000000, -1.000000000000000000 ) ) ;
#91 =( LENGTH_UNIT ( ) NAMED_UNIT ( * ) SI_UNIT ( .MILLI., .METRE. ) );
#92 =( NAMED_UNIT ( * ) PLANE_ANGLE_UNIT ( ) SI_UNIT ( $, .RADIAN. ) );
#93 = CARTESIAN_POINT ( 'NONE',  ( 5.800000000000003400, 3.199999999999999700, 0.0000000000000000000 ) ) ;
#94 = DIRECTION ( 'NONE',  ( 0.0000000000000000000, 0.0000000000000000000, -1.000000000000000000 ) ) ;
#95 = CARTESIAN_POINT ( 'NONE',  ( -2.750000000000000900, 2.128625898226125500, 5.235365066354936100E-016 ) ) ;
#96 = CARTESIAN_POINT ( 'NONE',  ( 0.0000000000000000000, 2.128625898226125500, 0.0000000000000000000 ) ) ;
#97 = DIRECTION ( 'NONE',  ( -0.0000000000000000000, -1.000000000000000000, -0.0000000000000000000 ) ) ;
#98 = CARTESIAN_POINT ( 'NONE',  ( 7.347880794884119700E-016, 3.199999999999999700, 6.000000000000000000 ) ) ;
#99 = CARTESIAN_POINT ( 'NONE',  ( 0.0000000000000000000, 14.83443165779918600, 0.0000000000000000000 ) ) ;
#100 = CARTESIAN_POINT ( 'NONE',  ( 3.367778697655222500E-016, -1.377727649040772800E-015, 2.750000000000000900 ) ) ;
#101 = DIRECTION ( 'NONE',  ( -0.0000000000000000000, -1.000000000000000000, -0.0000000000000000000 ) ) ;
#102 = DIRECTION ( 'NONE',  ( 0.0000000000000000000, 0.0000000000000000000, -1.000000000000000000 ) ) ;
#103 = CARTESIAN_POINT ( 'NONE',  ( 7.347880794884119700E-016, -9.797174393178831600E-016, 6.000000000000000000 ) ) ;
#104 = CARTESIAN_POINT ( 'NONE',  ( 0.0000000000000000000, -9.797174393178831600E-016, 0.0000000000000000000 ) ) ;
#105 = DIRECTION ( 'NONE',  ( 0.0000000000000000000, 0.0000000000000000000, -1.000000000000000000 ) ) ;
#106 = DIRECTION ( 'NONE',  ( 0.0000000000000000000, 0.0000000000000000000, -1.000000000000000000 ) ) ;
#107 = DIRECTION ( 'NONE',  ( -0.0000000000000000000, -1.000000000000000000, -0.0000000000000000000 ) ) ;
#108 = DIRECTION ( 'NONE',  ( 0.0000000000000000000, 0.0000000000000000000, -1.000000000000000000 ) ) ;
#109 = CARTESIAN_POINT ( 'NONE',  ( 0.0000000000000000000, -1.377727649040772800E-015, 0.0000000000000000000 ) ) ;
#110 = DIRECTION ( 'NONE',  ( 0.0000000000000000000, 0.0000000000000000000, -1.000000000000000000 ) ) ;
#111 = CARTESIAN_POINT ( 'NONE',  ( 0.0000000000000000000, 0.0000000000000000000, 0.0000000000000000000 ) ) ;
#112 = CARTESIAN_POINT ( 'NONE',  ( 3.367778697655221500E-016, 0.0000000000000000000, 2.750000000000000400 ) ) ;
#113 = DIRECTION ( 'NONE',  ( 0.0000000000000000000, -1.000000000000000000, -0.0000000000000000000 ) ) ;
#114 = DIRECTION ( 'NONE',  ( 1.000000000000000000, 0.0000000000000000000, 0.0000000000000000000 ) ) ;
#115 = LINE ( 'NONE', #112, #238 ) ;
#116 = CARTESIAN_POINT ( 'NONE',  ( 5.800000000000001600, 3.199999999999999700, 0.0000000000000000000 ) ) ;
#117 = DIRECTION ( 'NONE',  ( -1.000000000000000000, 0.0000000000000000000, 0.0000000000000000000 ) ) ;
#118 = PLANE ( 'NONE',  #220 ) ;
#119 = DIRECTION ( 'NONE',  ( -0.0000000000000000000, -1.000000000000000000, -0.0000000000000000000 ) ) ;
#120 = DIRECTION ( 'NONE',  ( 0.0000000000000000000, 0.0000000000000000000, 1.000000000000000000 ) ) ;
#121 = DIRECTION ( 'NONE',  ( -0.0000000000000000000, -1.000000000000000000, -0.0000000000000000000 ) ) ;
#122 = CARTESIAN_POINT ( 'NONE',  ( 0.0000000000000000000, 0.0000000000000000000, 0.0000000000000000000 ) ) ;
#123 = DIRECTION ( 'NONE',  ( 0.0000000000000000000, 0.0000000000000000000, -1.000000000000000000 ) ) ;
#124 = DIRECTION ( 'NONE',  ( -0.0000000000000000000, -1.000000000000000000, -0.0000000000000000000 ) ) ;
#125 = CARTESIAN_POINT ( 'NONE',  ( 0.0000000000000000000, 14.83443165779918600, 0.0000000000000000000 ) ) ;
#126 = LINE ( 'NONE', #131, #216 ) ;
#127 = DIRECTION ( 'NONE',  ( -0.0000000000000000000, -1.000000000000000000, -0.0000000000000000000 ) ) ;
#128 = CARTESIAN_POINT ( 'NONE',  ( 0.0000000000000000000, 2.128625898226125500, 0.0000000000000000000 ) ) ;
#129 = DIRECTION ( 'NONE',  ( -0.0000000000000000000, -1.000000000000000000, -0.0000000000000000000 ) ) ;
#130 = DIRECTION ( 'NONE',  ( 0.0000000000000000000, 0.0000000000000000000, -1.000000000000000000 ) ) ;
#131 = CARTESIAN_POINT ( 'NONE',  ( 0.0000000000000000000, 0.0000000000000000000, -2.750000000000000400 ) ) ;
#132 = CARTESIAN_POINT ( 'NONE',  ( 0.0000000000000000000, 14.83443165779918600, 0.0000000000000000000 ) ) ;
#133 = DIRECTION ( 'NONE',  ( -0.0000000000000000000, -1.000000000000000000, -0.0000000000000000000 ) ) ;
#134 = CARTESIAN_POINT ( 'NONE',  ( 0.0000000000000000000, 0.0000000000000000000, 0.0000000000000000000 ) ) ;
#135 = DIRECTION ( 'NONE',  ( 0.0000000000000000000, 0.0000000000000000000, -1.000000000000000000 ) ) ;
#136 = CARTESIAN_POINT ( 'NONE',  ( 0.0000000000000000000, 0.0000000000000000000, 0.0000000000000000000 ) ) ;
#137 = DIRECTION ( 'NONE',  ( 0.0000000000000000000, -1.000000000000000000, -0.0000000000000000000 ) ) ;
#138 = CARTESIAN_POINT ( 'NONE',  ( 6.000000000000000000, -1.178722544179328000E-015, 0.0000000000000000000 ) ) ;
#139 = PLANE ( 'NONE',  #210 ) ;
#140 = DIRECTION ( 'NONE',  ( 0.0000000000000000000, 0.0000000000000000000, -1.000000000000000000 ) ) ;
#141 = DIRECTION ( 'NONE',  ( -0.0000000000000000000, -1.000000000000000000, -0.0000000000000000000 ) ) ;
#142 = EDGE_LOOP ( 'NONE', ( #14, #17, #73, #21, #13 ) ) ;
#143 = CARTESIAN_POINT ( 'NONE',  ( 7.347880794884119700E-016, 0.0000000000000000000, 6.000000000000000000 ) ) ;
#144 = EDGE_LOOP ( 'NONE', ( #8, #4, #154, #42, #52 ) ) ;
#145 = CARTESIAN_POINT ( 'NONE',  ( 0.0000000000000000000, 3.199999999999999700, 0.0000000000000000000 ) ) ;
#146 = DIRECTION ( 'NONE',  ( -0.0000000000000000000, -1.000000000000000000, -0.0000000000000000000 ) ) ;
#147 = EDGE_LOOP ( 'NONE', ( #156, #153 ) ) ;
#148 = EDGE_LOOP ( 'NONE', ( #51, #49, #48, #158 ) ) ;
#149 = EDGE_LOOP ( 'NONE', ( #70, #69, #79, #35, #151 ) ) ;
#150 = VERTEX_POINT ( 'NONE', #95 ) ;
#151 = ORIENTED_EDGE ( 'NONE', *, *, #288, .T. ) ;
#152 = VERTEX_POINT ( 'NONE', #31 ) ;
#153 = ORIENTED_EDGE ( 'NONE', *, *, #261, .F. ) ;
#154 = ORIENTED_EDGE ( 'NONE', *, *, #273, .F. ) ;
#155 = ORIENTED_EDGE ( 'NONE', *, *, #272, .T. ) ;
#156 = ORIENTED_EDGE ( 'NONE', *, *, #310, .F. ) ;
#157 = ORIENTED_EDGE ( 'NONE', *, *, #262, .T. ) ;
#158 = ORIENTED_EDGE ( 'NONE', *, *, #272, .F. ) ;
#159 = DATE_AND_TIME ( #249, #297 ) ;
#160 = DATE_TIME_ROLE ( 'creation_date' ) ;
#161 = APPROVAL_DATE_TIME ( #159, #296 ) ;
#162 = PERSON_AND_ORGANIZATION ( #191, #212 ) ;
#163 = APPROVAL_STATUS ( 'not_yet_approved' ) ;
#164 = DATE_TIME_ROLE ( 'classification_date' ) ;
#165 = APPROVAL_DATE_TIME ( #168, #290 ) ;
#166 = APPROVAL_STATUS ( 'not_yet_approved' ) ;
#167 = PERSON_AND_ORGANIZATION_ROLE ( 'creator' ) ;
#168 = DATE_AND_TIME ( #222, #303 ) ;
#169 = PERSON_AND_ORGANIZATION ( #191, #212 ) ;
#170 = PERSON_AND_ORGANIZATION ( #191, #212 ) ;
#171 = PERSON_AND_ORGANIZATION ( #191, #212 ) ;
#172 = PERSON_AND_ORGANIZATION_ROLE ( 'design_supplier' ) ;
#173 = SECURITY_CLASSIFICATION_LEVEL ( 'unclassified' ) ;
#174 = PERSON_AND_ORGANIZATION_ROLE ( 'classification_officer' ) ;
#175 = PERSON_AND_ORGANIZATION ( #191, #212 ) ;
#176 = DATE_AND_TIME ( #255, #307 ) ;
#177 = APPROVAL_ROLE ( '' ) ;
#178 = MECHANICAL_CONTEXT ( 'NONE', #319, 'mechanical' ) ;
#179 = APPROVAL_ROLE ( '' ) ;
#180 = PERSON_AND_ORGANIZATION_ROLE ( 'creator' ) ;
#181 = PERSON_AND_ORGANIZATION ( #191, #212 ) ;
#182 = PERSON_AND_ORGANIZATION_ROLE ( 'design_owner' ) ;
#183 = DATE_AND_TIME ( #256, #294 ) ;
#184 = DATE_AND_TIME ( #208, #276 ) ;
#185 = APPROVAL_ROLE ( '' ) ;
#186 = APPROVAL_DATE_TIME ( #184, #285 ) ;
#187 = APPROVAL_STATUS ( 'not_yet_approved' ) ;
#188 = PERSON_AND_ORGANIZATION ( #191, #212 ) ;
#189 = APPLICATION_PROTOCOL_DEFINITION ( 'international standard', 'config_control_design', 1994, #320 ) ;
#190 = PERSON_AND_ORGANIZATION ( #191, #212 ) ;
#191 = PERSON ( 'UNSPECIFIED', 'UNSPECIFIED', 'UNSPECIFIED', ('UNSPECIFIED'), ('UNSPECIFIED'), ('UNSPECIFIED') ) ;
#192 = UNCERTAINTY_MEASURE_WITH_UNIT (LENGTH_MEASURE( 1.000000000000000100E-005 ), #91, 'distance_accuracy_value', 'NONE');
#193 = ADVANCED_BREP_SHAPE_REPRESENTATION ( 'WDS-401-2004F', ( #260, #242 ), #318 ) ;
#194 = AXIS2_PLACEMENT_3D ( 'NONE', #37, #141, #19 ) ;
#195 = FACE_BOUND ( 'NONE', #12, .T. ) ;
#196 = FACE_BOUND ( 'NONE', #147, .T. ) ;
#197 = CYLINDRICAL_SURFACE ( 'NONE', #219, 2.750000000000000400 ) ;
#198 = SECURITY_CLASSIFICATION ( '', '', #173 ) ;
#199 = AXIS2_PLACEMENT_3D ( 'NONE', #104, #80, #82 ) ;
#200 = COORDINATED_UNIVERSAL_TIME_OFFSET ( 5, 0, .BEHIND. ) ;
#201 = SPHERICAL_SURFACE ( 'NONE', #254, 12.99999999999999800 ) ;
#202 = FACE_OUTER_BOUND ( 'NONE', #149, .T. ) ;
#203 = PRODUCT_DEFINITION_FORMATION_WITH_SPECIFIED_SOURCE ( 'ANY', '', #321, .NOT_KNOWN. ) ;
#204 = CYLINDRICAL_SURFACE ( 'NONE', #225, 2.750000000000000400 ) ;
#205 = FACE_OUTER_BOUND ( 'NONE', #142, .T. ) ;
#206 = COORDINATED_UNIVERSAL_TIME_OFFSET ( 5, 0, .BEHIND. ) ;
#207 = CC_DESIGN_SECURITY_CLASSIFICATION ( #198, ( #203 ) ) ;
#208 = CALENDAR_DATE ( 2011, 23, 11 ) ;
#209 = AXIS2_PLACEMENT_3D ( 'NONE', #109, #107, #140 ) ;
#210 = AXIS2_PLACEMENT_3D ( 'NONE', #138, #137, #135 ) ;
#211 = APPROVAL_PERSON_ORGANIZATION ( #162, #290, #179 ) ;
#212 = ORGANIZATION ( 'UNSPECIFIED', 'UNSPECIFIED', '' ) ;
#213 = COORDINATED_UNIVERSAL_TIME_OFFSET ( 5, 0, .BEHIND. ) ;
#214 = VECTOR ( 'NONE', #32, 1000.000000000000000 ) ;
#215 = APPROVAL_PERSON_ORGANIZATION ( #188, #285, #185 ) ;
#216 = VECTOR ( 'NONE', #75, 1000.000000000000000 ) ;
#217 = CC_DESIGN_APPROVAL ( #296, ( #198 ) ) ;
#218 = COORDINATED_UNIVERSAL_TIME_OFFSET ( 5, 0, .BEHIND. ) ;
#219 = AXIS2_PLACEMENT_3D ( 'NONE', #136, #129, #130 ) ;
#220 = AXIS2_PLACEMENT_3D ( 'NONE', #116, #113, #108 ) ;
#221 = FACE_OUTER_BOUND ( 'NONE', #3, .T. ) ;
#222 = CALENDAR_DATE ( 2011, 23, 11 ) ;
#223 = AXIS2_PLACEMENT_3D ( 'NONE', #122, #133, #110 ) ;
#224 = AXIS2_PLACEMENT_3D ( 'NONE', #76, #86, #33 ) ;
#225 = AXIS2_PLACEMENT_3D ( 'NONE', #111, #61, #106 ) ;
#226 = VECTOR ( 'NONE', #97, 1000.000000000000000 ) ;
#227 = AXIS2_PLACEMENT_3D ( 'NONE', #78, #74, #87 ) ;
#228 = CC_DESIGN_APPROVAL ( #290, ( #203 ) ) ;
#229 = CYLINDRICAL_SURFACE ( 'NONE', #223, 6.000000000000000000 ) ;
#230 = AXIS2_PLACEMENT_3D ( 'NONE', #128, #119, #105 ) ;
#231 = AXIS2_PLACEMENT_3D ( 'NONE', #2, #18, #90 ) ;
#232 = COORDINATED_UNIVERSAL_TIME_OFFSET ( 5, 0, .BEHIND. ) ;
#233 = AXIS2_PLACEMENT_3D ( 'NONE', #96, #101, #94 ) ;
#234 = FACE_OUTER_BOUND ( 'NONE', #38, .T. ) ;
#235 = AXIS2_PLACEMENT_3D ( 'NONE', #125, #123, #117 ) ;
#236 = FACE_OUTER_BOUND ( 'NONE', #148, .T. ) ;
#237 = AXIS2_PLACEMENT_3D ( 'NONE', #26, #34, #36 ) ;
#238 = VECTOR ( 'NONE', #124, 1000.000000000000000 ) ;
#239 = FACE_OUTER_BOUND ( 'NONE', #9, .T. ) ;
#240 = FACE_OUTER_BOUND ( 'NONE', #144, .T. ) ;
#241 = FACE_OUTER_BOUND ( 'NONE', #7, .T. ) ;
#242 = AXIS2_PLACEMENT_3D ( 'NONE', #57, #46, #55 ) ;
#243 = AXIS2_PLACEMENT_3D ( 'NONE', #134, #127, #88 ) ;
#244 = AXIS2_PLACEMENT_3D ( 'NONE', #85, #121, #62 ) ;
#245 = AXIS2_PLACEMENT_3D ( 'NONE', #1, #39, #114 ) ;
#246 = APPROVAL_PERSON_ORGANIZATION ( #175, #296, #177 ) ;
#247 = AXIS2_PLACEMENT_3D ( 'NONE', #84, #27, #81 ) ;
#248 = AXIS2_PLACEMENT_3D ( 'NONE', #145, #146, #102 ) ;
#249 = CALENDAR_DATE ( 2011, 23, 11 ) ;
#250 = CYLINDRICAL_SURFACE ( 'NONE', #243, 6.000000000000000000 ) ;
#251 = CC_DESIGN_APPROVAL ( #285, ( #283 ) ) ;
#252 = AXIS2_PLACEMENT_3D ( 'NONE', #99, #29, #83 ) ;
#253 = CLOSED_SHELL ( 'NONE', ( #315, #271, #309, #311, #314, #313, #304, #270 ) ) ;
#254 = AXIS2_PLACEMENT_3D ( 'NONE', #132, #120, #77 ) ;
#255 = CALENDAR_DATE ( 2011, 23, 11 ) ;
#256 = CALENDAR_DATE ( 2011, 23, 11 ) ;
#257 = SPHERICAL_SURFACE ( 'NONE', #245, 12.99999999999999800 ) ;
#258 = PRODUCT_DEFINITION_SHAPE ( 'NONE', 'NONE',  #283 ) ;
#259 = DESIGN_CONTEXT ( 'detailed design', #320, 'design' ) ;
#260 = MANIFOLD_SOLID_BREP ( 'Cut-Revolve1', #253 ) ;
#261 = EDGE_CURVE ( 'NONE', #58, #152, #312, .T. ) ;
#262 = EDGE_CURVE ( 'NONE', #56, #45, #302, .T. ) ;
#263 = CIRCLE ( 'NONE', #230, 2.750000000000000900 ) ;
#264 = CIRCLE ( 'NONE', #227, 6.000000000000000000 ) ;
#265 = EDGE_CURVE ( 'NONE', #45, #56, #264, .T. ) ;
#266 = EDGE_CURVE ( 'NONE', #68, #16, #281, .T. ) ;
#267 = EDGE_CURVE ( 'NONE', #6, #152, #126, .T. ) ;
#268 = EDGE_CURVE ( 'NONE', #67, #5, #263, .T. ) ;
#269 = CC_DESIGN_PERSON_AND_ORGANIZATION_ASSIGNMENT ( #171, #174, ( #198 ) ) ;
#270 = ADVANCED_FACE ( 'NONE', ( #239, #195 ), #118, .F. ) ;
#271 = ADVANCED_FACE ( 'NONE', ( #234 ), #204, .F. ) ;
#272 = EDGE_CURVE ( 'NONE', #47, #45, #30, .T. ) ;
#273 = EDGE_CURVE ( 'NONE', #6, #67, #317, .T. ) ;
#274 = EDGE_CURVE ( 'NONE', #16, #68, #280, .T. ) ;
#275 = EDGE_CURVE ( 'NONE', #59, #56, #20, .T. ) ;
#276 = LOCAL_TIME ( 9, 33, 16.00000000000000000, #213 ) ;
#277 = EDGE_CURVE ( 'NONE', #47, #59, #279, .T. ) ;
#278 = CIRCLE ( 'NONE', #233, 2.750000000000000900 ) ;
#279 = CIRCLE ( 'NONE', #248, 6.000000000000000000 ) ;
#280 = CIRCLE ( 'NONE', #194, 5.800000000000001600 ) ;
#281 = CIRCLE ( 'NONE', #244, 5.800000000000001600 ) ;
#282 = CIRCLE ( 'NONE', #224, 6.000000000000000000 ) ;
#283 = PRODUCT_DEFINITION ( 'UNKNOWN', '', #203, #259 ) ;
#284 = EDGE_CURVE ( 'NONE', #150, #6, #278, .T. ) ;
#285 = APPROVAL ( #187, 'UNSPECIFIED' ) ;
#286 = CIRCLE ( 'NONE', #252, 12.99999999999999800 ) ;
#287 = EDGE_CURVE ( 'NONE', #16, #150, #286, .T. ) ;
#288 = EDGE_CURVE ( 'NONE', #5, #150, #305, .T. ) ;
#289 = CC_DESIGN_PERSON_AND_ORGANIZATION_ASSIGNMENT ( #169, #167, ( #203 ) ) ;
#290 = APPROVAL ( #166, 'UNSPECIFIED' ) ;
#291 = CC_DESIGN_DATE_AND_TIME_ASSIGNMENT ( #183, #160, ( #283 ) ) ;
#292 = PRODUCT_RELATED_PRODUCT_CATEGORY ( 'detail', '', ( #321 ) ) ;
#293 = CC_DESIGN_PERSON_AND_ORGANIZATION_ASSIGNMENT ( #190, #182, ( #321 ) ) ;
#294 = LOCAL_TIME ( 9, 33, 16.00000000000000000, #232 ) ;
#295 = CIRCLE ( 'NONE', #209, 2.750000000000000900 ) ;
#296 = APPROVAL ( #163, 'UNSPECIFIED' ) ;
#297 = LOCAL_TIME ( 9, 33, 16.00000000000000000, #206 ) ;
#298 = CIRCLE ( 'NONE', #235, 12.99999999999999800 ) ;
#299 = CC_DESIGN_PERSON_AND_ORGANIZATION_ASSIGNMENT ( #181, #180, ( #283 ) ) ;
#300 = CC_DESIGN_PERSON_AND_ORGANIZATION_ASSIGNMENT ( #170, #172, ( #203 ) ) ;
#301 = CC_DESIGN_DATE_AND_TIME_ASSIGNMENT ( #176, #164, ( #198 ) ) ;
#302 = CIRCLE ( 'NONE', #199, 6.000000000000000000 ) ;
#303 = LOCAL_TIME ( 9, 33, 16.00000000000000000, #218 ) ;
#304 = ADVANCED_FACE ( 'NONE', ( #202 ), #257, .F. ) ;
#305 = CIRCLE ( 'NONE', #247, 2.750000000000000900 ) ;
#306 = EDGE_CURVE ( 'NONE', #5, #58, #115, .T. ) ;
#307 = LOCAL_TIME ( 9, 33, 16.00000000000000000, #200 ) ;
#308 = EDGE_CURVE ( 'NONE', #68, #67, #298, .T. ) ;
#309 = ADVANCED_FACE ( 'NONE', ( #236 ), #229, .T. ) ;
#310 = EDGE_CURVE ( 'NONE', #152, #58, #295, .T. ) ;
#311 = ADVANCED_FACE ( 'NONE', ( #241, #196 ), #139, .T. ) ;
#312 = CIRCLE ( 'NONE', #231, 2.750000000000000900 ) ;
#313 = ADVANCED_FACE ( 'NONE', ( #240 ), #197, .F. ) ;
#314 = ADVANCED_FACE ( 'NONE', ( #221 ), #250, .T. ) ;
#315 = ADVANCED_FACE ( 'NONE', ( #205 ), #201, .F. ) ;
#316 = EDGE_CURVE ( 'NONE', #59, #47, #282, .T. ) ;
#317 = CIRCLE ( 'NONE', #237, 2.750000000000000900 ) ;
#318 =( GEOMETRIC_REPRESENTATION_CONTEXT ( 3 ) GLOBAL_UNCERTAINTY_ASSIGNED_CONTEXT ( ( #192 ) ) GLOBAL_UNIT_ASSIGNED_CONTEXT ( ( #91, #92, #23 ) ) REPRESENTATION_CONTEXT ( 'NONE', 'WORKASPACE' ) );
#319 = APPLICATION_CONTEXT ( 'configuration controlled 3d designs of mechanical parts and assemblies' ) ;
#320 = APPLICATION_CONTEXT ( 'configuration controlled 3d designs of mechanical parts and assemblies' ) ;
#321 = PRODUCT ( 'WDS-401-2004F', 'WDS-401-2004F', '', ( #178 ) ) ;
ENDSEC;
END-ISO-10303-21;
