ISO-10303-21;
HEADER;
FILE_DESCRIPTION (( 'STEP AP214' ),
    '1' );
FILE_NAME ('WDS-401-2065M.step',
    '2012-04-05T09:57:24',
    ( 'sysAdmin' ),
    ( 'SolidWorks' ),
    'SwSTEP 2.0',
    'SolidWorks 2012',
    '' );
FILE_SCHEMA (( 'AUTOMOTIVE_DESIGN' ));
ENDSEC;

DATA;
#1 = ADVANCED_FACE ( 'NONE', ( #93 ), #139, .T. ) ;
#2 = ORIENTED_EDGE ( 'NONE', *, *, #52, .T. ) ;
#3 = LINE ( 'NONE', #7, #19 ) ;
#4 = ORIENTED_EDGE ( 'NONE', *, *, #72, .T. ) ;
#5 = EDGE_LOOP ( 'NONE', ( #8, #4, #12, #9, #10, #11 ) ) ;
#6 = CLOSED_SHELL ( 'NONE', ( #18, #101, #38, #63, #71, #65, #1 ) ) ;
#7 = CARTESIAN_POINT ( 'NONE',  ( 2.326828918379971000E-015, 0.0000000000000000000, 19.00000000000000000 ) ) ;
#8 = ORIENTED_EDGE ( 'NONE', *, *, #17, .F. ) ;
#9 = ORIENTED_EDGE ( 'NONE', *, *, #107, .T. ) ;
#10 = ORIENTED_EDGE ( 'NONE', *, *, #52, .F. ) ;
#11 = ORIENTED_EDGE ( 'NONE', *, *, #33, .F. ) ;
#12 = ORIENTED_EDGE ( 'NONE', *, *, #45, .T. ) ;
#13 = VERTEX_POINT ( 'NONE', #144 ) ;
#14 = VERTEX_POINT ( 'NONE', #143 ) ;
#15 = VERTEX_POINT ( 'NONE', #136 ) ;
#16 = VERTEX_POINT ( 'NONE', #142 ) ;
#17 = EDGE_CURVE ( 'NONE', #15, #13, #145, .T. ) ;
#18 = ADVANCED_FACE ( 'NONE', ( #138 ), #141, .T. ) ;
#19 = VECTOR ( 'NONE', #23, 1000.000000000000000 ) ;
#20 = ORIENTED_EDGE ( 'NONE', *, *, #94, .F. ) ;
#21 = ORIENTED_EDGE ( 'NONE', *, *, #30, .T. ) ;
#22 = VERTEX_POINT ( 'NONE', #131 ) ;
#23 = DIRECTION ( 'NONE',  ( -0.0000000000000000000, -1.000000000000000000, -0.0000000000000000000 ) ) ;
#24 = EDGE_LOOP ( 'NONE', ( #44, #43, #70, #25, #95 ) ) ;
#25 = ORIENTED_EDGE ( 'NONE', *, *, #45, .F. ) ;
#26 = ORIENTED_EDGE ( 'NONE', *, *, #33, .T. ) ;
#27 = VERTEX_POINT ( 'NONE', #123 ) ;
#28 = MANIFOLD_SOLID_BREP ( 'Cut-Revolve2', #6 ) ;
#29 = ORIENTED_EDGE ( 'NONE', *, *, #116, .T. ) ;
#30 = EDGE_CURVE ( 'NONE', #46, #16, #105, .T. ) ;
#31 = EDGE_LOOP ( 'NONE', ( #99, #39, #120, #118, #119, #29 ) ) ;
#32 = ORIENTED_EDGE ( 'NONE', *, *, #97, .F. ) ;
#33 = EDGE_CURVE ( 'NONE', #13, #22, #115, .T. ) ;
#34 = VERTEX_POINT ( 'NONE', #91 ) ;
#35 = EDGE_CURVE ( 'NONE', #27, #16, #111, .T. ) ;
#36 = VERTEX_POINT ( 'NONE', #150 ) ;
#37 = ORIENTED_EDGE ( 'NONE', *, *, #42, .T. ) ;
#38 = ADVANCED_FACE ( 'NONE', ( #149 ), #146, .T. ) ;
#39 = ORIENTED_EDGE ( 'NONE', *, *, #17, .T. ) ;
#40 = EDGE_CURVE ( 'NONE', #36, #14, #3, .T. ) ;
#41 = EDGE_CURVE ( 'NONE', #117, #36, #48, .T. ) ;
#42 = EDGE_CURVE ( 'NONE', #16, #13, #191, .T. ) ;
#43 = ORIENTED_EDGE ( 'NONE', *, *, #40, .T. ) ;
#44 = ORIENTED_EDGE ( 'NONE', *, *, #41, .T. ) ;
#45 = EDGE_CURVE ( 'NONE', #77, #47, #192, .T. ) ;
#46 = VERTEX_POINT ( 'NONE', #193 ) ;
#47 = VERTEX_POINT ( 'NONE', #276 ) ;
#48 = CIRCLE ( 'NONE', #64, 19.00000000000000000 ) ;
#49 = DIRECTION ( 'NONE',  ( -0.0000000000000000000, -1.000000000000000000, -0.0000000000000000000 ) ) ;
#50 = CARTESIAN_POINT ( 'NONE',  ( 0.0000000000000000000, 6.600000000000000500, 0.0000000000000000000 ) ) ;
#51 = ORIENTED_EDGE ( 'NONE', *, *, #35, .T. ) ;
#52 = EDGE_CURVE ( 'NONE', #22, #27, #161, .T. ) ;
#53 = EDGE_LOOP ( 'NONE', ( #66, #67, #54, #2, #51 ) ) ;
#54 = ORIENTED_EDGE ( 'NONE', *, *, #94, .T. ) ;
#55 = EDGE_LOOP ( 'NONE', ( #62, #61, #76, #58, #75 ) ) ;
#56 = EDGE_LOOP ( 'NONE', ( #69, #74 ) ) ;
#57 = EDGE_LOOP ( 'NONE', ( #73, #59 ) ) ;
#58 = ORIENTED_EDGE ( 'NONE', *, *, #72, .F. ) ;
#59 = ORIENTED_EDGE ( 'NONE', *, *, #97, .T. ) ;
#60 = EDGE_CURVE ( 'NONE', #36, #117, #162, .T. ) ;
#61 = ORIENTED_EDGE ( 'NONE', *, *, #60, .T. ) ;
#62 = ORIENTED_EDGE ( 'NONE', *, *, #40, .F. ) ;
#63 = ADVANCED_FACE ( 'NONE', ( #247 ), #275, .T. ) ;
#64 = AXIS2_PLACEMENT_3D ( 'NONE', #50, #49, #122 ) ;
#65 = ADVANCED_FACE ( 'NONE', ( #253 ), #209, .F. ) ;
#66 = ORIENTED_EDGE ( 'NONE', *, *, #30, .F. ) ;
#67 = ORIENTED_EDGE ( 'NONE', *, *, #68, .F. ) ;
#68 = EDGE_CURVE ( 'NONE', #34, #46, #163, .T. ) ;
#69 = ORIENTED_EDGE ( 'NONE', *, *, #41, .F. ) ;
#70 = ORIENTED_EDGE ( 'NONE', *, *, #116, .F. ) ;
#71 = ADVANCED_FACE ( 'NONE', ( #237, #180 ), #239, .T. ) ;
#72 = EDGE_CURVE ( 'NONE', #15, #77, #226, .T. ) ;
#73 = ORIENTED_EDGE ( 'NONE', *, *, #68, .T. ) ;
#74 = ORIENTED_EDGE ( 'NONE', *, *, #60, .F. ) ;
#75 = ORIENTED_EDGE ( 'NONE', *, *, #100, .F. ) ;
#76 = ORIENTED_EDGE ( 'NONE', *, *, #96, .T. ) ;
#77 = VERTEX_POINT ( 'NONE', #260 ) ;
#78 = UNCERTAINTY_MEASURE_WITH_UNIT (LENGTH_MEASURE( 1.000000000000000100E-005 ), #81, 'distance_accuracy_value', 'NONE');
#79 =( NAMED_UNIT ( * ) SI_UNIT ( $, .STERADIAN. ) SOLID_ANGLE_UNIT ( ) );
#80 =( NAMED_UNIT ( * ) PLANE_ANGLE_UNIT ( ) SI_UNIT ( $, .RADIAN. ) );
#81 =( LENGTH_UNIT ( ) NAMED_UNIT ( * ) SI_UNIT ( .MILLI., .METRE. ) );
#82 = MECHANICAL_DESIGN_GEOMETRIC_PRESENTATION_REPRESENTATION (  '', ( #84 ), #106 ) ;
#83 = PRESENTATION_LAYER_ASSIGNMENT (  '', '', ( #84 ) ) ;
#84 = STYLED_ITEM ( 'NONE', ( #85 ), #28 ) ;
#85 = PRESENTATION_STYLE_ASSIGNMENT (( #86 ) ) ;
#86 = SURFACE_STYLE_USAGE ( .BOTH. , #87 ) ;
#87 = SURFACE_SIDE_STYLE ('',( #88 ) ) ;
#88 = SURFACE_STYLE_FILL_AREA ( #89 ) ;
#89 = FILL_AREA_STYLE ('',( #140 ) ) ;
#90 = COLOUR_RGB ( '',0.7529411764705882200, 0.7529411764705882200, 0.7529411764705882200 ) ;
#91 = CARTESIAN_POINT ( 'NONE',  ( 0.0000000000000000000, 6.599999999999999600, -10.24999999999999800 ) ) ;
#92 = DIRECTION ( 'NONE',  ( 1.000000000000000000, 0.0000000000000000000, 0.0000000000000000000 ) ) ;
#93 = FACE_OUTER_BOUND ( 'NONE', #5, .T. ) ;
#94 = EDGE_CURVE ( 'NONE', #34, #22, #222, .T. ) ;
#95 = ORIENTED_EDGE ( 'NONE', *, *, #96, .F. ) ;
#96 = EDGE_CURVE ( 'NONE', #117, #77, #214, .T. ) ;
#97 = EDGE_CURVE ( 'NONE', #46, #34, #220, .T. ) ;
#98 = EDGE_LOOP ( 'NONE', ( #32, #21, #37, #26, #20 ) ) ;
#99 = ORIENTED_EDGE ( 'NONE', *, *, #100, .T. ) ;
#100 = EDGE_CURVE ( 'NONE', #14, #15, #203, .T. ) ;
#101 = ADVANCED_FACE ( 'NONE', ( #208 ), #232, .F. ) ;
#102 = DIRECTION ( 'NONE',  ( -0.0000000000000000000, -1.000000000000000000, -0.0000000000000000000 ) ) ;
#103 = VECTOR ( 'NONE', #102, 1000.000000000000000 ) ;
#104 = CARTESIAN_POINT ( 'NONE',  ( 1.255262969126037000E-015, 0.0000000000000000000, 10.24999999999999800 ) ) ;
#105 = LINE ( 'NONE', #104, #103 ) ;
#106 =( GEOMETRIC_REPRESENTATION_CONTEXT ( 3 ) GLOBAL_UNCERTAINTY_ASSIGNED_CONTEXT ( ( #78 ) ) GLOBAL_UNIT_ASSIGNED_CONTEXT ( ( #81, #80, #79 ) ) REPRESENTATION_CONTEXT ( 'NONE', 'WORKASPACE' ) );
#107 = EDGE_CURVE ( 'NONE', #47, #27, #159, .T. ) ;
#108 = DIRECTION ( 'NONE',  ( 0.0000000000000000000, 0.0000000000000000000, -1.000000000000000000 ) ) ;
#109 = DIRECTION ( 'NONE',  ( -0.0000000000000000000, -1.000000000000000000, -0.0000000000000000000 ) ) ;
#110 = CARTESIAN_POINT ( 'NONE',  ( 0.0000000000000000000, 1.100000000000001200, 0.0000000000000000000 ) ) ;
#111 = CIRCLE ( 'NONE', #137, 10.24999999999999800 ) ;
#112 = DIRECTION ( 'NONE',  ( 0.0000000000000000000, 0.0000000000000000000, -1.000000000000000000 ) ) ;
#113 = DIRECTION ( 'NONE',  ( -0.0000000000000000000, -1.000000000000000000, -0.0000000000000000000 ) ) ;
#114 = CARTESIAN_POINT ( 'NONE',  ( 0.0000000000000000000, 1.100000000000001200, 0.0000000000000000000 ) ) ;
#115 = CIRCLE ( 'NONE', #121, 10.24999999999999800 ) ;
#116 = EDGE_CURVE ( 'NONE', #47, #14, #195, .T. ) ;
#117 = VERTEX_POINT ( 'NONE', #160 ) ;
#118 = ORIENTED_EDGE ( 'NONE', *, *, #35, .F. ) ;
#119 = ORIENTED_EDGE ( 'NONE', *, *, #107, .F. ) ;
#120 = ORIENTED_EDGE ( 'NONE', *, *, #42, .F. ) ;
#121 = AXIS2_PLACEMENT_3D ( 'NONE', #114, #113, #112 ) ;
#122 = DIRECTION ( 'NONE',  ( 0.0000000000000000000, 0.0000000000000000000, -1.000000000000000000 ) ) ;
#123 = CARTESIAN_POINT ( 'NONE',  ( 10.24999999999999800, 1.100000000000001200, 0.0000000000000000000 ) ) ;
#124 = DIRECTION ( 'NONE',  ( 1.000000000000000000, 0.0000000000000000000, -1.224646799147353200E-016 ) ) ;
#125 = DIRECTION ( 'NONE',  ( 1.224646799147353200E-016, -0.0000000000000000000, 1.000000000000000000 ) ) ;
#126 = CARTESIAN_POINT ( 'NONE',  ( 0.0000000000000000000, 47.99282994232700600, 0.0000000000000000000 ) ) ;
#127 = AXIS2_PLACEMENT_3D ( 'NONE', #126, #125, #124 ) ;
#128 = AXIS2_PLACEMENT_3D ( 'NONE', #129, #130, #92 ) ;
#129 = CARTESIAN_POINT ( 'NONE',  ( 0.0000000000000000000, 47.99282994232700600, 0.0000000000000000000 ) ) ;
#130 = DIRECTION ( 'NONE',  ( 0.0000000000000000000, 0.0000000000000000000, 1.000000000000000000 ) ) ;
#131 = CARTESIAN_POINT ( 'NONE',  ( 0.0000000000000000000, 1.100000000000001200, -10.24999999999999800 ) ) ;
#132 = DIRECTION ( 'NONE',  ( 1.000000000000000000, 0.0000000000000000000, 0.0000000000000000000 ) ) ;
#133 = DIRECTION ( 'NONE',  ( 0.0000000000000000000, 0.0000000000000000000, 1.000000000000000000 ) ) ;
#134 = CARTESIAN_POINT ( 'NONE',  ( 0.0000000000000000000, 47.99282994232700600, 0.0000000000000000000 ) ) ;
#135 = AXIS2_PLACEMENT_3D ( 'NONE', #134, #133, #132 ) ;
#136 = CARTESIAN_POINT ( 'NONE',  ( -18.99999999999999600, 3.913356261258627500, 2.326828918379970600E-015 ) ) ;
#137 = AXIS2_PLACEMENT_3D ( 'NONE', #110, #109, #108 ) ;
#138 = FACE_OUTER_BOUND ( 'NONE', #31, .T. ) ;
#139 = SPHERICAL_SURFACE ( 'NONE', #135, 48.00000000000000000 ) ;
#140 = FILL_AREA_STYLE_COLOUR ( '', #90 ) ;
#141 = SPHERICAL_SURFACE ( 'NONE', #128, 48.00000000000000000 ) ;
#142 = CARTESIAN_POINT ( 'NONE',  ( 1.255262969126037000E-015, 1.100000000000001200, 10.24999999999999800 ) ) ;
#143 = CARTESIAN_POINT ( 'NONE',  ( 2.326828918379971400E-015, 3.913356261258628300, 19.00000000000000400 ) ) ;
#144 = CARTESIAN_POINT ( 'NONE',  ( -10.24999999999999800, 1.100000000000001200, 1.791045943753004300E-015 ) ) ;
#145 = CIRCLE ( 'NONE', #127, 48.00000000000000000 ) ;
#146 = CYLINDRICAL_SURFACE ( 'NONE', #152, 19.00000000000000000 ) ;
#147 = CARTESIAN_POINT ( 'NONE',  ( 0.0000000000000000000, 0.0000000000000000000, 0.0000000000000000000 ) ) ;
#148 = DIRECTION ( 'NONE',  ( -0.0000000000000000000, -1.000000000000000000, -0.0000000000000000000 ) ) ;
#149 = FACE_OUTER_BOUND ( 'NONE', #24, .T. ) ;
#150 = CARTESIAN_POINT ( 'NONE',  ( 2.326828918379971000E-015, 6.600000000000000500, 19.00000000000000000 ) ) ;
#151 = DIRECTION ( 'NONE',  ( 0.0000000000000000000, 0.0000000000000000000, -1.000000000000000000 ) ) ;
#152 = AXIS2_PLACEMENT_3D ( 'NONE', #147, #148, #151 ) ;
#153 = DIRECTION ( 'NONE',  ( 0.0000000000000000000, 0.0000000000000000000, -1.000000000000000000 ) ) ;
#154 = DIRECTION ( 'NONE',  ( -0.0000000000000000000, -1.000000000000000000, -0.0000000000000000000 ) ) ;
#155 = CARTESIAN_POINT ( 'NONE',  ( 0.0000000000000000000, 3.913356261258628300, 0.0000000000000000000 ) ) ;
#156 = DIRECTION ( 'NONE',  ( -1.000000000000000000, 0.0000000000000000000, 0.0000000000000000000 ) ) ;
#157 = DIRECTION ( 'NONE',  ( 0.0000000000000000000, 0.0000000000000000000, -1.000000000000000000 ) ) ;
#158 = CARTESIAN_POINT ( 'NONE',  ( 0.0000000000000000000, 47.99282994232700600, 0.0000000000000000000 ) ) ;
#159 = CIRCLE ( 'NONE', #221, 48.00000000000000000 ) ;
#160 = CARTESIAN_POINT ( 'NONE',  ( 0.0000000000000000000, 6.600000000000000500, -19.00000000000000000 ) ) ;
#161 = CIRCLE ( 'NONE', #240, 10.24999999999999800 ) ;
#162 = CIRCLE ( 'NONE', #185, 19.00000000000000000 ) ;
#163 = CIRCLE ( 'NONE', #236, 10.24999999999999800 ) ;
#164 = DIRECTION ( 'NONE',  ( 0.0000000000000000000, 0.0000000000000000000, -1.000000000000000000 ) ) ;
#165 = DIRECTION ( 'NONE',  ( -0.0000000000000000000, -1.000000000000000000, -0.0000000000000000000 ) ) ;
#166 = CARTESIAN_POINT ( 'NONE',  ( 0.0000000000000000000, 3.913356261258628300, 0.0000000000000000000 ) ) ;
#167 = PRODUCT_DEFINITION_SHAPE ( 'NONE', 'NONE',  #171 ) ;
#168 = PRODUCT_RELATED_PRODUCT_CATEGORY ( 'part', '', ( #175 ) ) ;
#169 = PRODUCT_DEFINITION_FORMATION_WITH_SPECIFIED_SOURCE ( 'ANY', '', #175, .NOT_KNOWN. ) ;
#170 = SHAPE_DEFINITION_REPRESENTATION ( #167, #274 ) ;
#171 = PRODUCT_DEFINITION ( 'UNKNOWN', '', #169, #172 ) ;
#172 = PRODUCT_DEFINITION_CONTEXT ( 'detailed design', #174, 'design' ) ;
#173 = APPLICATION_PROTOCOL_DEFINITION ( 'draft international standard', 'automotive_design', 1998, #174 ) ;
#174 = APPLICATION_CONTEXT ( 'automotive_design' ) ;
#175 = PRODUCT ( 'WDS-401-2065M', 'WDS-401-2065M', '', ( #176 ) ) ;
#176 = PRODUCT_CONTEXT ( 'NONE', #190, 'mechanical' ) ;
#177 = APPLICATION_PROTOCOL_DEFINITION ( 'draft international standard', 'automotive_design', 1998, #190 ) ;
#178 = AXIS2_PLACEMENT_3D ( 'NONE', #254, #249, #248 ) ;
#179 = AXIS2_PLACEMENT_3D ( 'NONE', #181, #210, #238 ) ;
#180 = FACE_OUTER_BOUND ( 'NONE', #56, .T. ) ;
#181 = CARTESIAN_POINT ( 'NONE',  ( 0.0000000000000000000, 0.0000000000000000000, 0.0000000000000000000 ) ) ;
#182 = DIRECTION ( 'NONE',  ( 0.0000000000000000000, 0.0000000000000000000, -1.000000000000000000 ) ) ;
#183 = DIRECTION ( 'NONE',  ( -0.0000000000000000000, -1.000000000000000000, -0.0000000000000000000 ) ) ;
#184 = CARTESIAN_POINT ( 'NONE',  ( 0.0000000000000000000, 6.600000000000000500, 0.0000000000000000000 ) ) ;
#185 = AXIS2_PLACEMENT_3D ( 'NONE', #184, #183, #182 ) ;
#186 = AXIS2_PLACEMENT_3D ( 'NONE', #225, #224, #223 ) ;
#187 = DIRECTION ( 'NONE',  ( 1.000000000000000000, 0.0000000000000000000, 0.0000000000000000000 ) ) ;
#188 = DIRECTION ( 'NONE',  ( 0.0000000000000000000, 0.0000000000000000000, 1.000000000000000000 ) ) ;
#189 = CARTESIAN_POINT ( 'NONE',  ( 0.0000000000000000000, 0.0000000000000000000, 0.0000000000000000000 ) ) ;
#190 = APPLICATION_CONTEXT ( 'automotive_design' ) ;
#191 = CIRCLE ( 'NONE', #258, 10.24999999999999800 ) ;
#192 = CIRCLE ( 'NONE', #259, 19.00000000000000400 ) ;
#193 = CARTESIAN_POINT ( 'NONE',  ( 1.255262969126037000E-015, 6.599999999999999600, 10.24999999999999800 ) ) ;
#194 = FILL_AREA_STYLE_COLOUR ( '', #273 ) ;
#195 = CIRCLE ( 'NONE', #215, 19.00000000000000400 ) ;
#196 = DIRECTION ( 'NONE',  ( 0.0000000000000000000, 0.0000000000000000000, -1.000000000000000000 ) ) ;
#197 = DIRECTION ( 'NONE',  ( -0.0000000000000000000, -1.000000000000000000, -0.0000000000000000000 ) ) ;
#198 = CARTESIAN_POINT ( 'NONE',  ( 0.0000000000000000000, 0.0000000000000000000, 0.0000000000000000000 ) ) ;
#199 = AXIS2_PLACEMENT_3D ( 'NONE', #189, #188, #187 ) ;
#200 = DIRECTION ( 'NONE',  ( 0.0000000000000000000, 0.0000000000000000000, -1.000000000000000000 ) ) ;
#201 = DIRECTION ( 'NONE',  ( -0.0000000000000000000, -1.000000000000000000, -0.0000000000000000000 ) ) ;
#202 = CARTESIAN_POINT ( 'NONE',  ( 0.0000000000000000000, 3.913356261258628300, 0.0000000000000000000 ) ) ;
#203 = CIRCLE ( 'NONE', #216, 19.00000000000000400 ) ;
#204 = AXIS2_PLACEMENT_3D ( 'NONE', #198, #197, #196 ) ;
#205 = DIRECTION ( 'NONE',  ( 0.0000000000000000000, 0.0000000000000000000, -1.000000000000000000 ) ) ;
#206 = DIRECTION ( 'NONE',  ( -0.0000000000000000000, -1.000000000000000000, -0.0000000000000000000 ) ) ;
#207 = CARTESIAN_POINT ( 'NONE',  ( 0.0000000000000000000, 6.599999999999999600, 0.0000000000000000000 ) ) ;
#208 = FACE_OUTER_BOUND ( 'NONE', #98, .T. ) ;
#209 = CYLINDRICAL_SURFACE ( 'NONE', #179, 10.24999999999999800 ) ;
#210 = DIRECTION ( 'NONE',  ( -0.0000000000000000000, -1.000000000000000000, -0.0000000000000000000 ) ) ;
#211 = DIRECTION ( 'NONE',  ( -0.0000000000000000000, -1.000000000000000000, -0.0000000000000000000 ) ) ;
#212 = VECTOR ( 'NONE', #211, 1000.000000000000000 ) ;
#213 = CARTESIAN_POINT ( 'NONE',  ( 0.0000000000000000000, 0.0000000000000000000, -19.00000000000000000 ) ) ;
#214 = LINE ( 'NONE', #213, #212 ) ;
#215 = AXIS2_PLACEMENT_3D ( 'NONE', #155, #154, #153 ) ;
#216 = AXIS2_PLACEMENT_3D ( 'NONE', #202, #201, #200 ) ;
#217 = DIRECTION ( 'NONE',  ( -0.0000000000000000000, -1.000000000000000000, -0.0000000000000000000 ) ) ;
#218 = VECTOR ( 'NONE', #217, 1000.000000000000000 ) ;
#219 = CARTESIAN_POINT ( 'NONE',  ( 0.0000000000000000000, 0.0000000000000000000, -10.24999999999999800 ) ) ;
#220 = CIRCLE ( 'NONE', #231, 10.24999999999999800 ) ;
#221 = AXIS2_PLACEMENT_3D ( 'NONE', #158, #157, #156 ) ;
#222 = LINE ( 'NONE', #219, #218 ) ;
#223 = DIRECTION ( 'NONE',  ( 0.0000000000000000000, 0.0000000000000000000, -1.000000000000000000 ) ) ;
#224 = DIRECTION ( 'NONE',  ( -0.0000000000000000000, -1.000000000000000000, -0.0000000000000000000 ) ) ;
#225 = CARTESIAN_POINT ( 'NONE',  ( 0.0000000000000000000, 3.913356261258628300, 0.0000000000000000000 ) ) ;
#226 = CIRCLE ( 'NONE', #186, 19.00000000000000400 ) ;
#227 = DIRECTION ( 'NONE',  ( 0.0000000000000000000, -0.0000000000000000000, 1.000000000000000000 ) ) ;
#228 = DIRECTION ( 'NONE',  ( 0.0000000000000000000, 1.000000000000000000, 0.0000000000000000000 ) ) ;
#229 = CARTESIAN_POINT ( 'NONE',  ( 10.24999999999999800, 6.599999999999999600, 0.0000000000000000000 ) ) ;
#230 = AXIS2_PLACEMENT_3D ( 'NONE', #229, #228, #227 ) ;
#231 = AXIS2_PLACEMENT_3D ( 'NONE', #207, #206, #205 ) ;
#232 = CYLINDRICAL_SURFACE ( 'NONE', #204, 10.24999999999999800 ) ;
#233 = DIRECTION ( 'NONE',  ( 0.0000000000000000000, 0.0000000000000000000, -1.000000000000000000 ) ) ;
#234 = DIRECTION ( 'NONE',  ( -0.0000000000000000000, -1.000000000000000000, -0.0000000000000000000 ) ) ;
#235 = CARTESIAN_POINT ( 'NONE',  ( 0.0000000000000000000, 6.599999999999999600, 0.0000000000000000000 ) ) ;
#236 = AXIS2_PLACEMENT_3D ( 'NONE', #235, #234, #233 ) ;
#237 = FACE_BOUND ( 'NONE', #57, .T. ) ;
#238 = DIRECTION ( 'NONE',  ( 0.0000000000000000000, 0.0000000000000000000, -1.000000000000000000 ) ) ;
#239 = PLANE ( 'NONE',  #230 ) ;
#240 = AXIS2_PLACEMENT_3D ( 'NONE', #252, #251, #250 ) ;
#241 =( GEOMETRIC_REPRESENTATION_CONTEXT ( 3 ) GLOBAL_UNCERTAINTY_ASSIGNED_CONTEXT ( ( #242 ) ) GLOBAL_UNIT_ASSIGNED_CONTEXT ( ( #245, #244, #243 ) ) REPRESENTATION_CONTEXT ( 'NONE', 'WORKASPACE' ) );
#242 = UNCERTAINTY_MEASURE_WITH_UNIT (LENGTH_MEASURE( 1.000000000000000100E-005 ), #245, 'distance_accuracy_value', 'NONE');
#243 =( NAMED_UNIT ( * ) SI_UNIT ( $, .STERADIAN. ) SOLID_ANGLE_UNIT ( ) );
#244 =( NAMED_UNIT ( * ) PLANE_ANGLE_UNIT ( ) SI_UNIT ( $, .RADIAN. ) );
#245 =( LENGTH_UNIT ( ) NAMED_UNIT ( * ) SI_UNIT ( .MILLI., .METRE. ) );
#246 = FILL_AREA_STYLE ('',( #194 ) ) ;
#247 = FACE_OUTER_BOUND ( 'NONE', #55, .T. ) ;
#248 = DIRECTION ( 'NONE',  ( 0.0000000000000000000, 0.0000000000000000000, -1.000000000000000000 ) ) ;
#249 = DIRECTION ( 'NONE',  ( -0.0000000000000000000, -1.000000000000000000, -0.0000000000000000000 ) ) ;
#250 = DIRECTION ( 'NONE',  ( 0.0000000000000000000, 0.0000000000000000000, -1.000000000000000000 ) ) ;
#251 = DIRECTION ( 'NONE',  ( -0.0000000000000000000, -1.000000000000000000, -0.0000000000000000000 ) ) ;
#252 = CARTESIAN_POINT ( 'NONE',  ( 0.0000000000000000000, 1.100000000000001200, 0.0000000000000000000 ) ) ;
#253 = FACE_OUTER_BOUND ( 'NONE', #53, .T. ) ;
#254 = CARTESIAN_POINT ( 'NONE',  ( 0.0000000000000000000, 0.0000000000000000000, 0.0000000000000000000 ) ) ;
#255 = DIRECTION ( 'NONE',  ( 0.0000000000000000000, 0.0000000000000000000, -1.000000000000000000 ) ) ;
#256 = DIRECTION ( 'NONE',  ( -0.0000000000000000000, -1.000000000000000000, -0.0000000000000000000 ) ) ;
#257 = CARTESIAN_POINT ( 'NONE',  ( 0.0000000000000000000, 1.100000000000001200, 0.0000000000000000000 ) ) ;
#258 = AXIS2_PLACEMENT_3D ( 'NONE', #257, #256, #255 ) ;
#259 = AXIS2_PLACEMENT_3D ( 'NONE', #166, #165, #164 ) ;
#260 = CARTESIAN_POINT ( 'NONE',  ( 0.0000000000000000000, 3.913356261258628300, -19.00000000000000400 ) ) ;
#261 =( GEOMETRIC_REPRESENTATION_CONTEXT ( 3 ) GLOBAL_UNCERTAINTY_ASSIGNED_CONTEXT ( ( #262 ) ) GLOBAL_UNIT_ASSIGNED_CONTEXT ( ( #265, #264, #263 ) ) REPRESENTATION_CONTEXT ( 'NONE', 'WORKASPACE' ) );
#262 = UNCERTAINTY_MEASURE_WITH_UNIT (LENGTH_MEASURE( 1.000000000000000100E-005 ), #265, 'distance_accuracy_value', 'NONE');
#263 =( NAMED_UNIT ( * ) SI_UNIT ( $, .STERADIAN. ) SOLID_ANGLE_UNIT ( ) );
#264 =( NAMED_UNIT ( * ) PLANE_ANGLE_UNIT ( ) SI_UNIT ( $, .RADIAN. ) );
#265 =( LENGTH_UNIT ( ) NAMED_UNIT ( * ) SI_UNIT ( .MILLI., .METRE. ) );
#266 = MECHANICAL_DESIGN_GEOMETRIC_PRESENTATION_REPRESENTATION (  '', ( #268 ), #261 ) ;
#267 = PRESENTATION_LAYER_ASSIGNMENT (  '', '', ( #268 ) ) ;
#268 = STYLED_ITEM ( 'NONE', ( #269 ), #274 ) ;
#269 = PRESENTATION_STYLE_ASSIGNMENT (( #270 ) ) ;
#270 = SURFACE_STYLE_USAGE ( .BOTH. , #271 ) ;
#271 = SURFACE_SIDE_STYLE ('',( #272 ) ) ;
#272 = SURFACE_STYLE_FILL_AREA ( #246 ) ;
#273 = COLOUR_RGB ( '',0.7529411764705882200, 0.7529411764705882200, 0.7529411764705882200 ) ;
#274 = ADVANCED_BREP_SHAPE_REPRESENTATION ( 'WDS-401-2065M', ( #28, #199 ), #241 ) ;
#275 = CYLINDRICAL_SURFACE ( 'NONE', #178, 19.00000000000000000 ) ;
#276 = CARTESIAN_POINT ( 'NONE',  ( 18.99999999999999600, 3.913356261258627500, 0.0000000000000000000 ) ) ;
ENDSEC;
END-ISO-10303-21;
