ISO-10303-21;
HEADER;
FILE_DESCRIPTION (( 'STEP AP203' ),
    '1' );
FILE_NAME ('WDS-401-206M.step',
    '2012-03-30T18:02:54',
    ( 'sysAdmin' ),
    ( 'SolidWorks' ),
    'SwSTEP 2.0',
    'SolidWorks 2012',
    '' );
FILE_SCHEMA (( 'CONFIG_CONTROL_DESIGN' ));
ENDSEC;

DATA;
#1 = ADVANCED_FACE ( 'NONE', ( #90 ), #85, .F. ) ;
#2 = MANIFOLD_SOLID_BREP ( 'Cut-Revolve2', #44 ) ;
#3 = EDGE_LOOP ( 'NONE', ( #12, #8, #9, #4, #15, #14 ) ) ;
#4 = ORIENTED_EDGE ( 'NONE', *, *, #17, .F. ) ;
#5 = VERTEX_POINT ( 'NONE', #88 ) ;
#6 = VERTEX_POINT ( 'NONE', #87 ) ;
#7 = ADVANCED_FACE ( 'NONE', ( #86 ), #84, .T. ) ;
#8 = ORIENTED_EDGE ( 'NONE', *, *, #19, .T. ) ;
#9 = ORIENTED_EDGE ( 'NONE', *, *, #10, .F. ) ;
#10 = EDGE_CURVE ( 'NONE', #6, #11, #235, .T. ) ;
#11 = VERTEX_POINT ( 'NONE', #230 ) ;
#12 = ORIENTED_EDGE ( 'NONE', *, *, #25, .T. ) ;
#13 = EDGE_CURVE ( 'NONE', #18, #27, #226, .T. ) ;
#14 = ORIENTED_EDGE ( 'NONE', *, *, #13, .T. ) ;
#15 = ORIENTED_EDGE ( 'NONE', *, *, #16, .F. ) ;
#16 = EDGE_CURVE ( 'NONE', #18, #5, #215, .T. ) ;
#17 = EDGE_CURVE ( 'NONE', #5, #6, #218, .T. ) ;
#18 = VERTEX_POINT ( 'NONE', #217 ) ;
#19 = EDGE_CURVE ( 'NONE', #30, #11, #224, .T. ) ;
#20 = EDGE_CURVE ( 'NONE', #26, #21, #199, .T. ) ;
#21 = VERTEX_POINT ( 'NONE', #206 ) ;
#22 = ORIENTED_EDGE ( 'NONE', *, *, #20, .F. ) ;
#23 = EDGE_LOOP ( 'NONE', ( #22, #35, #49, #46, #33 ) ) ;
#24 = EDGE_CURVE ( 'NONE', #11, #28, #208, .T. ) ;
#25 = EDGE_CURVE ( 'NONE', #27, #30, #193, .T. ) ;
#26 = VERTEX_POINT ( 'NONE', #82 ) ;
#27 = VERTEX_POINT ( 'NONE', #191 ) ;
#28 = VERTEX_POINT ( 'NONE', #200 ) ;
#29 = ADVANCED_FACE ( 'NONE', ( #78, #185 ), #192, .T. ) ;
#30 = VERTEX_POINT ( 'NONE', #75 ) ;
#31 = ADVANCED_FACE ( 'NONE', ( #190 ), #207, .T. ) ;
#32 = EDGE_LOOP ( 'NONE', ( #66, #60, #63, #239, #57 ) ) ;
#33 = ORIENTED_EDGE ( 'NONE', *, *, #40, .F. ) ;
#34 = EDGE_CURVE ( 'NONE', #26, #6, #158, .T. ) ;
#35 = ORIENTED_EDGE ( 'NONE', *, *, #34, .T. ) ;
#36 = ORIENTED_EDGE ( 'NONE', *, *, #20, .T. ) ;
#37 = EDGE_CURVE ( 'NONE', #21, #26, #160, .T. ) ;
#38 = VERTEX_POINT ( 'NONE', #154 ) ;
#39 = VERTEX_POINT ( 'NONE', #149 ) ;
#40 = EDGE_CURVE ( 'NONE', #21, #28, #146, .T. ) ;
#41 = ADVANCED_FACE ( 'NONE', ( #70 ), #161, .T. ) ;
#42 = ORIENTED_EDGE ( 'NONE', *, *, #95, .T. ) ;
#43 = ORIENTED_EDGE ( 'NONE', *, *, #64, .F. ) ;
#44 = CLOSED_SHELL ( 'NONE', ( #7, #1, #31, #102, #29, #61, #41 ) ) ;
#45 = EDGE_CURVE ( 'NONE', #50, #38, #159, .T. ) ;
#46 = ORIENTED_EDGE ( 'NONE', *, *, #24, .T. ) ;
#47 = ORIENTED_EDGE ( 'NONE', *, *, #13, .F. ) ;
#48 = ORIENTED_EDGE ( 'NONE', *, *, #55, .T. ) ;
#49 = ORIENTED_EDGE ( 'NONE', *, *, #10, .T. ) ;
#50 = VERTEX_POINT ( 'NONE', #142 ) ;
#51 = EDGE_CURVE ( 'NONE', #38, #50, #148, .T. ) ;
#52 = EDGE_LOOP ( 'NONE', ( #59, #65, #42, #62, #43, #56 ) ) ;
#53 = ORIENTED_EDGE ( 'NONE', *, *, #93, .F. ) ;
#54 = ORIENTED_EDGE ( 'NONE', *, *, #51, .T. ) ;
#55 = EDGE_CURVE ( 'NONE', #50, #27, #127, .T. ) ;
#56 = ORIENTED_EDGE ( 'NONE', *, *, #24, .F. ) ;
#57 = ORIENTED_EDGE ( 'NONE', *, *, #17, .T. ) ;
#58 = ORIENTED_EDGE ( 'NONE', *, *, #45, .F. ) ;
#59 = ORIENTED_EDGE ( 'NONE', *, *, #19, .F. ) ;
#60 = ORIENTED_EDGE ( 'NONE', *, *, #37, .F. ) ;
#61 = ADVANCED_FACE ( 'NONE', ( #132 ), #123, .F. ) ;
#62 = ORIENTED_EDGE ( 'NONE', *, *, #16, .T. ) ;
#63 = ORIENTED_EDGE ( 'NONE', *, *, #40, .T. ) ;
#64 = EDGE_CURVE ( 'NONE', #28, #5, #122, .T. ) ;
#65 = ORIENTED_EDGE ( 'NONE', *, *, #98, .T. ) ;
#66 = ORIENTED_EDGE ( 'NONE', *, *, #34, .F. ) ;
#67 = ORIENTED_EDGE ( 'NONE', *, *, #93, .T. ) ;
#68 = DIRECTION ( 'NONE',  ( 0.0000000000000000000, 0.0000000000000000000, 1.000000000000000000 ) ) ;
#69 = CARTESIAN_POINT ( 'NONE',  ( 0.0000000000000000000, 39.81577443659576000, 0.0000000000000000000 ) ) ;
#70 = FACE_OUTER_BOUND ( 'NONE', #52, .T. ) ;
#71 = DIRECTION ( 'NONE',  ( 0.0000000000000000000, -0.0000000000000000000, 1.000000000000000000 ) ) ;
#72 = DIRECTION ( 'NONE',  ( 0.0000000000000000000, 1.000000000000000000, 0.0000000000000000000 ) ) ;
#73 = CARTESIAN_POINT ( 'NONE',  ( 9.250000000000001800, 6.099999999999999600, 0.0000000000000000000 ) ) ;
#74 = CARTESIAN_POINT ( 'NONE',  ( 0.0000000000000000000, 0.0000000000000000000, 0.0000000000000000000 ) ) ;
#75 = CARTESIAN_POINT ( 'NONE',  ( -17.50000000000000000, 3.847038011750362900, 2.143131898507868600E-015 ) ) ;
#76 = AXIS2_PLACEMENT_3D ( 'NONE', #74, #195, #186 ) ;
#77 = AXIS2_PLACEMENT_3D ( 'NONE', #73, #72, #71 ) ;
#78 = FACE_BOUND ( 'NONE', #237, .T. ) ;
#79 = DIRECTION ( 'NONE',  ( -0.0000000000000000000, -1.000000000000000000, -0.0000000000000000000 ) ) ;
#80 = CARTESIAN_POINT ( 'NONE',  ( 0.0000000000000000000, 0.0000000000000000000, 0.0000000000000000000 ) ) ;
#81 = AXIS2_PLACEMENT_3D ( 'NONE', #80, #79, #236 ) ;
#82 = CARTESIAN_POINT ( 'NONE',  ( 1.132798289211301900E-015, 6.099999999999999600, 9.250000000000001800 ) ) ;
#83 = AXIS2_PLACEMENT_3D ( 'NONE', #234, #233, #232 ) ;
#84 = SPHERICAL_SURFACE ( 'NONE', #83, 40.00000000000000000 ) ;
#85 = CYLINDRICAL_SURFACE ( 'NONE', #81, 9.250000000000001800 ) ;
#86 = FACE_OUTER_BOUND ( 'NONE', #3, .T. ) ;
#87 = CARTESIAN_POINT ( 'NONE',  ( 1.132798289211301900E-015, 0.8999999999999998000, 9.250000000000001800 ) ) ;
#88 = CARTESIAN_POINT ( 'NONE',  ( 9.250000000000001800, 0.8999999999999998000, 0.0000000000000000000 ) ) ;
#89 = AXIS2_PLACEMENT_3D ( 'NONE', #205, #204, #203 ) ;
#90 = FACE_OUTER_BOUND ( 'NONE', #23, .T. ) ;
#91 =( LENGTH_UNIT ( ) NAMED_UNIT ( * ) SI_UNIT ( .MILLI., .METRE. ) );
#92 = EDGE_LOOP ( 'NONE', ( #54, #48, #47, #97, #53 ) ) ;
#93 = EDGE_CURVE ( 'NONE', #38, #39, #114, .T. ) ;
#94 = EDGE_LOOP ( 'NONE', ( #96, #101, #67, #238, #104 ) ) ;
#95 = EDGE_CURVE ( 'NONE', #39, #18, #119, .T. ) ;
#96 = ORIENTED_EDGE ( 'NONE', *, *, #55, .F. ) ;
#97 = ORIENTED_EDGE ( 'NONE', *, *, #95, .F. ) ;
#98 = EDGE_CURVE ( 'NONE', #30, #39, #111, .T. ) ;
#99 = ORIENTED_EDGE ( 'NONE', *, *, #51, .F. ) ;
#100 = EDGE_LOOP ( 'NONE', ( #99, #58 ) ) ;
#101 = ORIENTED_EDGE ( 'NONE', *, *, #45, .T. ) ;
#102 = ADVANCED_FACE ( 'NONE', ( #173 ), #110, .T. ) ;
#103 = ORIENTED_EDGE ( 'NONE', *, *, #37, .T. ) ;
#104 = ORIENTED_EDGE ( 'NONE', *, *, #25, .F. ) ;
#105 = DIRECTION ( 'NONE',  ( 0.0000000000000000000, 0.0000000000000000000, -1.000000000000000000 ) ) ;
#106 = DIRECTION ( 'NONE',  ( -0.0000000000000000000, -1.000000000000000000, -0.0000000000000000000 ) ) ;
#107 = CARTESIAN_POINT ( 'NONE',  ( 0.0000000000000000000, 3.847038011750364200, 0.0000000000000000000 ) ) ;
#108 = DIRECTION ( 'NONE',  ( -0.0000000000000000000, -1.000000000000000000, -0.0000000000000000000 ) ) ;
#109 = VECTOR ( 'NONE', #108, 1000.000000000000000 ) ;
#110 = CYLINDRICAL_SURFACE ( 'NONE', #112, 17.50000000000000000 ) ;
#111 = CIRCLE ( 'NONE', #172, 17.50000000000000400 ) ;
#112 = AXIS2_PLACEMENT_3D ( 'NONE', #174, #121, #167 ) ;
#113 = CARTESIAN_POINT ( 'NONE',  ( 0.0000000000000000000, 0.0000000000000000000, -17.50000000000000000 ) ) ;
#114 = LINE ( 'NONE', #113, #109 ) ;
#115 = AXIS2_PLACEMENT_3D ( 'NONE', #107, #106, #105 ) ;
#116 = DIRECTION ( 'NONE',  ( 0.0000000000000000000, 0.0000000000000000000, -1.000000000000000000 ) ) ;
#117 = DIRECTION ( 'NONE',  ( -0.0000000000000000000, -1.000000000000000000, -0.0000000000000000000 ) ) ;
#118 = CARTESIAN_POINT ( 'NONE',  ( 0.0000000000000000000, 0.8999999999999998000, 0.0000000000000000000 ) ) ;
#119 = CIRCLE ( 'NONE', #115, 17.50000000000000400 ) ;
#120 = DIRECTION ( 'NONE',  ( 0.0000000000000000000, 0.0000000000000000000, -1.000000000000000000 ) ) ;
#121 = DIRECTION ( 'NONE',  ( -0.0000000000000000000, -1.000000000000000000, -0.0000000000000000000 ) ) ;
#122 = CIRCLE ( 'NONE', #131, 9.250000000000001800 ) ;
#123 = CYLINDRICAL_SURFACE ( 'NONE', #128, 9.250000000000001800 ) ;
#124 = DIRECTION ( 'NONE',  ( -0.0000000000000000000, -1.000000000000000000, -0.0000000000000000000 ) ) ;
#125 = VECTOR ( 'NONE', #124, 1000.000000000000000 ) ;
#126 = CARTESIAN_POINT ( 'NONE',  ( 2.143131898507868200E-015, 0.0000000000000000000, 17.50000000000000000 ) ) ;
#127 = LINE ( 'NONE', #126, #125 ) ;
#128 = AXIS2_PLACEMENT_3D ( 'NONE', #139, #135, #120 ) ;
#129 = DIRECTION ( 'NONE',  ( 0.0000000000000000000, 0.0000000000000000000, -1.000000000000000000 ) ) ;
#130 = DIRECTION ( 'NONE',  ( -0.0000000000000000000, -1.000000000000000000, -0.0000000000000000000 ) ) ;
#131 = AXIS2_PLACEMENT_3D ( 'NONE', #118, #117, #116 ) ;
#132 = FACE_OUTER_BOUND ( 'NONE', #32, .T. ) ;
#133 = CARTESIAN_POINT ( 'NONE',  ( 0.0000000000000000000, 6.099999999999999600, 0.0000000000000000000 ) ) ;
#134 = AXIS2_PLACEMENT_3D ( 'NONE', #133, #130, #129 ) ;
#135 = DIRECTION ( 'NONE',  ( -0.0000000000000000000, -1.000000000000000000, -0.0000000000000000000 ) ) ;
#136 = DIRECTION ( 'NONE',  ( 0.0000000000000000000, 0.0000000000000000000, -1.000000000000000000 ) ) ;
#137 = DIRECTION ( 'NONE',  ( -0.0000000000000000000, -1.000000000000000000, -0.0000000000000000000 ) ) ;
#138 = CARTESIAN_POINT ( 'NONE',  ( 0.0000000000000000000, 6.099999999999999600, 0.0000000000000000000 ) ) ;
#139 = CARTESIAN_POINT ( 'NONE',  ( 0.0000000000000000000, 0.0000000000000000000, 0.0000000000000000000 ) ) ;
#140 = AXIS2_PLACEMENT_3D ( 'NONE', #138, #137, #136 ) ;
#141 = DIRECTION ( 'NONE',  ( 1.000000000000000000, 0.0000000000000000000, 0.0000000000000000000 ) ) ;
#142 = CARTESIAN_POINT ( 'NONE',  ( 2.143131898507868200E-015, 6.099999999999999600, 17.50000000000000000 ) ) ;
#143 = DIRECTION ( 'NONE',  ( -0.0000000000000000000, -1.000000000000000000, -0.0000000000000000000 ) ) ;
#144 = VECTOR ( 'NONE', #143, 1000.000000000000000 ) ;
#145 = CARTESIAN_POINT ( 'NONE',  ( 0.0000000000000000000, 0.0000000000000000000, -9.250000000000001800 ) ) ;
#146 = LINE ( 'NONE', #145, #144 ) ;
#147 = AXIS2_PLACEMENT_3D ( 'NONE', #69, #68, #141 ) ;
#148 = CIRCLE ( 'NONE', #134, 17.50000000000000000 ) ;
#149 = CARTESIAN_POINT ( 'NONE',  ( 0.0000000000000000000, 3.847038011750364200, -17.50000000000000400 ) ) ;
#150 = DIRECTION ( 'NONE',  ( 0.0000000000000000000, 0.0000000000000000000, -1.000000000000000000 ) ) ;
#151 = DIRECTION ( 'NONE',  ( -0.0000000000000000000, -1.000000000000000000, -0.0000000000000000000 ) ) ;
#152 = CARTESIAN_POINT ( 'NONE',  ( 0.0000000000000000000, 6.099999999999999600, 0.0000000000000000000 ) ) ;
#153 = AXIS2_PLACEMENT_3D ( 'NONE', #152, #151, #150 ) ;
#154 = CARTESIAN_POINT ( 'NONE',  ( 0.0000000000000000000, 6.099999999999999600, -17.50000000000000000 ) ) ;
#155 = DIRECTION ( 'NONE',  ( -0.0000000000000000000, -1.000000000000000000, -0.0000000000000000000 ) ) ;
#156 = VECTOR ( 'NONE', #155, 1000.000000000000000 ) ;
#157 = CARTESIAN_POINT ( 'NONE',  ( 1.132798289211301900E-015, 0.0000000000000000000, 9.250000000000001800 ) ) ;
#158 = LINE ( 'NONE', #157, #156 ) ;
#159 = CIRCLE ( 'NONE', #140, 17.50000000000000000 ) ;
#160 = CIRCLE ( 'NONE', #153, 9.250000000000001800 ) ;
#161 = SPHERICAL_SURFACE ( 'NONE', #147, 40.00000000000000000 ) ;
#162 = ADVANCED_BREP_SHAPE_REPRESENTATION ( 'WDS-401-206M', ( #2, #168 ), #163 ) ;
#163 =( GEOMETRIC_REPRESENTATION_CONTEXT ( 3 ) GLOBAL_UNCERTAINTY_ASSIGNED_CONTEXT ( ( #164 ) ) GLOBAL_UNIT_ASSIGNED_CONTEXT ( ( #91, #166, #165 ) ) REPRESENTATION_CONTEXT ( 'NONE', 'WORKASPACE' ) );
#164 = UNCERTAINTY_MEASURE_WITH_UNIT (LENGTH_MEASURE( 1.000000000000000100E-005 ), #91, 'distance_accuracy_value', 'NONE');
#165 =( NAMED_UNIT ( * ) SI_UNIT ( $, .STERADIAN. ) SOLID_ANGLE_UNIT ( ) );
#166 =( NAMED_UNIT ( * ) PLANE_ANGLE_UNIT ( ) SI_UNIT ( $, .RADIAN. ) );
#167 = DIRECTION ( 'NONE',  ( 0.0000000000000000000, 0.0000000000000000000, -1.000000000000000000 ) ) ;
#168 = AXIS2_PLACEMENT_3D ( 'NONE', #182, #181, #180 ) ;
#169 = DIRECTION ( 'NONE',  ( 0.0000000000000000000, 0.0000000000000000000, -1.000000000000000000 ) ) ;
#170 = DIRECTION ( 'NONE',  ( -0.0000000000000000000, -1.000000000000000000, -0.0000000000000000000 ) ) ;
#171 = CARTESIAN_POINT ( 'NONE',  ( 0.0000000000000000000, 3.847038011750364200, 0.0000000000000000000 ) ) ;
#172 = AXIS2_PLACEMENT_3D ( 'NONE', #171, #170, #169 ) ;
#173 = FACE_OUTER_BOUND ( 'NONE', #94, .T. ) ;
#174 = CARTESIAN_POINT ( 'NONE',  ( 0.0000000000000000000, 0.0000000000000000000, 0.0000000000000000000 ) ) ;
#175 = PERSON ( 'UNSPECIFIED', 'UNSPECIFIED', 'UNSPECIFIED', ('UNSPECIFIED'), ('UNSPECIFIED'), ('UNSPECIFIED') ) ;
#176 = PRODUCT ( 'WDS-401-206M', 'WDS-401-206M', '', ( #177 ) ) ;
#177 = MECHANICAL_CONTEXT ( 'NONE', #179, 'mechanical' ) ;
#178 = APPLICATION_PROTOCOL_DEFINITION ( 'international standard', 'config_control_design', 1994, #179 ) ;
#179 = APPLICATION_CONTEXT ( 'configuration controlled 3d designs of mechanical parts and assemblies' ) ;
#180 = DIRECTION ( 'NONE',  ( 1.000000000000000000, 0.0000000000000000000, 0.0000000000000000000 ) ) ;
#181 = DIRECTION ( 'NONE',  ( 0.0000000000000000000, 0.0000000000000000000, 1.000000000000000000 ) ) ;
#182 = CARTESIAN_POINT ( 'NONE',  ( 0.0000000000000000000, 0.0000000000000000000, 0.0000000000000000000 ) ) ;
#183 = DIRECTION ( 'NONE',  ( 0.0000000000000000000, 0.0000000000000000000, -1.000000000000000000 ) ) ;
#184 = DIRECTION ( 'NONE',  ( -0.0000000000000000000, -1.000000000000000000, -0.0000000000000000000 ) ) ;
#185 = FACE_OUTER_BOUND ( 'NONE', #100, .T. ) ;
#186 = DIRECTION ( 'NONE',  ( 0.0000000000000000000, 0.0000000000000000000, -1.000000000000000000 ) ) ;
#187 = DIRECTION ( 'NONE',  ( 0.0000000000000000000, 0.0000000000000000000, -1.000000000000000000 ) ) ;
#188 = DIRECTION ( 'NONE',  ( -0.0000000000000000000, -1.000000000000000000, -0.0000000000000000000 ) ) ;
#189 = CARTESIAN_POINT ( 'NONE',  ( 0.0000000000000000000, 0.8999999999999998000, 0.0000000000000000000 ) ) ;
#190 = FACE_OUTER_BOUND ( 'NONE', #92, .T. ) ;
#191 = CARTESIAN_POINT ( 'NONE',  ( 2.143131898507868600E-015, 3.847038011750364200, 17.50000000000000400 ) ) ;
#192 = PLANE ( 'NONE',  #77 ) ;
#193 = CIRCLE ( 'NONE', #201, 17.50000000000000400 ) ;
#194 = AXIS2_PLACEMENT_3D ( 'NONE', #189, #188, #187 ) ;
#195 = DIRECTION ( 'NONE',  ( -0.0000000000000000000, -1.000000000000000000, -0.0000000000000000000 ) ) ;
#196 = DIRECTION ( 'NONE',  ( 0.0000000000000000000, 0.0000000000000000000, -1.000000000000000000 ) ) ;
#197 = DIRECTION ( 'NONE',  ( -0.0000000000000000000, -1.000000000000000000, -0.0000000000000000000 ) ) ;
#198 = CARTESIAN_POINT ( 'NONE',  ( 0.0000000000000000000, 6.099999999999999600, 0.0000000000000000000 ) ) ;
#199 = CIRCLE ( 'NONE', #216, 9.250000000000001800 ) ;
#200 = CARTESIAN_POINT ( 'NONE',  ( 0.0000000000000000000, 0.8999999999999998000, -9.250000000000001800 ) ) ;
#201 = AXIS2_PLACEMENT_3D ( 'NONE', #202, #184, #183 ) ;
#202 = CARTESIAN_POINT ( 'NONE',  ( 0.0000000000000000000, 3.847038011750364200, 0.0000000000000000000 ) ) ;
#203 = DIRECTION ( 'NONE',  ( 1.000000000000000000, 0.0000000000000000000, -1.224646799147353200E-016 ) ) ;
#204 = DIRECTION ( 'NONE',  ( 1.224646799147353200E-016, -0.0000000000000000000, 1.000000000000000000 ) ) ;
#205 = CARTESIAN_POINT ( 'NONE',  ( 0.0000000000000000000, 39.81577443659576000, 0.0000000000000000000 ) ) ;
#206 = CARTESIAN_POINT ( 'NONE',  ( 0.0000000000000000000, 6.099999999999999600, -9.250000000000001800 ) ) ;
#207 = CYLINDRICAL_SURFACE ( 'NONE', #76, 17.50000000000000000 ) ;
#208 = CIRCLE ( 'NONE', #194, 9.250000000000001800 ) ;
#209 = DIRECTION ( 'NONE',  ( 0.0000000000000000000, 0.0000000000000000000, -1.000000000000000000 ) ) ;
#210 = DIRECTION ( 'NONE',  ( -0.0000000000000000000, -1.000000000000000000, -0.0000000000000000000 ) ) ;
#211 = CARTESIAN_POINT ( 'NONE',  ( 0.0000000000000000000, 0.8999999999999998000, 0.0000000000000000000 ) ) ;
#212 = DIRECTION ( 'NONE',  ( -1.000000000000000000, 0.0000000000000000000, 0.0000000000000000000 ) ) ;
#213 = DIRECTION ( 'NONE',  ( 0.0000000000000000000, 0.0000000000000000000, -1.000000000000000000 ) ) ;
#214 = CARTESIAN_POINT ( 'NONE',  ( 0.0000000000000000000, 39.81577443659576000, 0.0000000000000000000 ) ) ;
#215 = CIRCLE ( 'NONE', #223, 40.00000000000000000 ) ;
#216 = AXIS2_PLACEMENT_3D ( 'NONE', #198, #197, #196 ) ;
#217 = CARTESIAN_POINT ( 'NONE',  ( 17.50000000000000000, 3.847038011750362900, 0.0000000000000000000 ) ) ;
#218 = CIRCLE ( 'NONE', #225, 9.250000000000001800 ) ;
#219 = DIRECTION ( 'NONE',  ( 0.0000000000000000000, 0.0000000000000000000, -1.000000000000000000 ) ) ;
#220 = DIRECTION ( 'NONE',  ( -0.0000000000000000000, -1.000000000000000000, -0.0000000000000000000 ) ) ;
#221 = CARTESIAN_POINT ( 'NONE',  ( 0.0000000000000000000, 3.847038011750364200, 0.0000000000000000000 ) ) ;
#222 = AXIS2_PLACEMENT_3D ( 'NONE', #221, #220, #219 ) ;
#223 = AXIS2_PLACEMENT_3D ( 'NONE', #214, #213, #212 ) ;
#224 = CIRCLE ( 'NONE', #89, 40.00000000000000000 ) ;
#225 = AXIS2_PLACEMENT_3D ( 'NONE', #211, #210, #209 ) ;
#226 = CIRCLE ( 'NONE', #222, 17.50000000000000400 ) ;
#227 = DIRECTION ( 'NONE',  ( 0.0000000000000000000, 0.0000000000000000000, -1.000000000000000000 ) ) ;
#228 = DIRECTION ( 'NONE',  ( -0.0000000000000000000, -1.000000000000000000, -0.0000000000000000000 ) ) ;
#229 = CARTESIAN_POINT ( 'NONE',  ( 0.0000000000000000000, 0.8999999999999998000, 0.0000000000000000000 ) ) ;
#230 = CARTESIAN_POINT ( 'NONE',  ( -9.250000000000001800, 0.8999999999999998000, 1.637965093859585600E-015 ) ) ;
#231 = AXIS2_PLACEMENT_3D ( 'NONE', #229, #228, #227 ) ;
#232 = DIRECTION ( 'NONE',  ( 1.000000000000000000, 0.0000000000000000000, 0.0000000000000000000 ) ) ;
#233 = DIRECTION ( 'NONE',  ( 0.0000000000000000000, 0.0000000000000000000, 1.000000000000000000 ) ) ;
#234 = CARTESIAN_POINT ( 'NONE',  ( 0.0000000000000000000, 39.81577443659576000, 0.0000000000000000000 ) ) ;
#235 = CIRCLE ( 'NONE', #231, 9.250000000000001800 ) ;
#236 = DIRECTION ( 'NONE',  ( 0.0000000000000000000, 0.0000000000000000000, -1.000000000000000000 ) ) ;
#237 = EDGE_LOOP ( 'NONE', ( #103, #36 ) ) ;
#238 = ORIENTED_EDGE ( 'NONE', *, *, #98, .F. ) ;
#239 = ORIENTED_EDGE ( 'NONE', *, *, #64, .T. ) ;
#240 = SECURITY_CLASSIFICATION ( '', '', #241 ) ;
#241 = SECURITY_CLASSIFICATION_LEVEL ( 'unclassified' ) ;
#242 = CC_DESIGN_PERSON_AND_ORGANIZATION_ASSIGNMENT ( #244, #243, ( #259 ) ) ;
#243 = PERSON_AND_ORGANIZATION_ROLE ( 'design_supplier' ) ;
#244 = PERSON_AND_ORGANIZATION ( #175, #305 ) ;
#245 = CC_DESIGN_PERSON_AND_ORGANIZATION_ASSIGNMENT ( #247, #246, ( #259 ) ) ;
#246 = PERSON_AND_ORGANIZATION_ROLE ( 'creator' ) ;
#247 = PERSON_AND_ORGANIZATION ( #175, #305 ) ;
#248 = CC_DESIGN_APPROVAL ( #256, ( #259 ) ) ;
#249 = APPROVAL_DATE_TIME ( #250, #256 ) ;
#250 = DATE_AND_TIME ( #251, #252 ) ;
#251 = CALENDAR_DATE ( 2012, 30, 3 ) ;
#252 = LOCAL_TIME ( 14, 2, 54.00000000000000000, #253 ) ;
#253 = COORDINATED_UNIVERSAL_TIME_OFFSET ( 5, 0, .BEHIND. ) ;
#254 = APPROVAL_PERSON_ORGANIZATION ( #258, #256, #255 ) ;
#255 = APPROVAL_ROLE ( '' ) ;
#256 = APPROVAL ( #257, 'UNSPECIFIED' ) ;
#257 = APPROVAL_STATUS ( 'not_yet_approved' ) ;
#258 = PERSON_AND_ORGANIZATION ( #175, #305 ) ;
#259 = PRODUCT_DEFINITION_FORMATION_WITH_SPECIFIED_SOURCE ( 'ANY', '', #176, .NOT_KNOWN. ) ;
#260 = CC_DESIGN_DATE_AND_TIME_ASSIGNMENT ( #262, #261, ( #280 ) ) ;
#261 = DATE_TIME_ROLE ( 'creation_date' ) ;
#262 = DATE_AND_TIME ( #263, #264 ) ;
#263 = CALENDAR_DATE ( 2012, 30, 3 ) ;
#264 = LOCAL_TIME ( 14, 2, 54.00000000000000000, #265 ) ;
#265 = COORDINATED_UNIVERSAL_TIME_OFFSET ( 5, 0, .BEHIND. ) ;
#266 = CC_DESIGN_PERSON_AND_ORGANIZATION_ASSIGNMENT ( #268, #267, ( #280 ) ) ;
#267 = PERSON_AND_ORGANIZATION_ROLE ( 'creator' ) ;
#268 = PERSON_AND_ORGANIZATION ( #175, #305 ) ;
#269 = CC_DESIGN_APPROVAL ( #277, ( #280 ) ) ;
#270 = APPROVAL_DATE_TIME ( #271, #277 ) ;
#271 = DATE_AND_TIME ( #272, #273 ) ;
#272 = CALENDAR_DATE ( 2012, 30, 3 ) ;
#273 = LOCAL_TIME ( 14, 2, 54.00000000000000000, #274 ) ;
#274 = COORDINATED_UNIVERSAL_TIME_OFFSET ( 5, 0, .BEHIND. ) ;
#275 = APPROVAL_PERSON_ORGANIZATION ( #279, #277, #276 ) ;
#276 = APPROVAL_ROLE ( '' ) ;
#277 = APPROVAL ( #278, 'UNSPECIFIED' ) ;
#278 = APPROVAL_STATUS ( 'not_yet_approved' ) ;
#279 = PERSON_AND_ORGANIZATION ( #175, #305 ) ;
#280 = PRODUCT_DEFINITION ( 'UNKNOWN', '', #259, #306 ) ;
#281 = SHAPE_DEFINITION_REPRESENTATION ( #282, #162 ) ;
#282 = PRODUCT_DEFINITION_SHAPE ( 'NONE', 'NONE',  #280 ) ;
#283 = PRODUCT_RELATED_PRODUCT_CATEGORY ( 'detail', '', ( #176 ) ) ;
#284 = CC_DESIGN_SECURITY_CLASSIFICATION ( #240, ( #259 ) ) ;
#285 = CC_DESIGN_APPROVAL ( #293, ( #240 ) ) ;
#286 = APPROVAL_DATE_TIME ( #287, #293 ) ;
#287 = DATE_AND_TIME ( #288, #289 ) ;
#288 = CALENDAR_DATE ( 2012, 30, 3 ) ;
#289 = LOCAL_TIME ( 14, 2, 54.00000000000000000, #290 ) ;
#290 = COORDINATED_UNIVERSAL_TIME_OFFSET ( 5, 0, .BEHIND. ) ;
#291 = APPROVAL_PERSON_ORGANIZATION ( #295, #293, #292 ) ;
#292 = APPROVAL_ROLE ( '' ) ;
#293 = APPROVAL ( #294, 'UNSPECIFIED' ) ;
#294 = APPROVAL_STATUS ( 'not_yet_approved' ) ;
#295 = PERSON_AND_ORGANIZATION ( #175, #305 ) ;
#296 = CC_DESIGN_DATE_AND_TIME_ASSIGNMENT ( #298, #297, ( #240 ) ) ;
#297 = DATE_TIME_ROLE ( 'classification_date' ) ;
#298 = DATE_AND_TIME ( #299, #300 ) ;
#299 = CALENDAR_DATE ( 2012, 30, 3 ) ;
#300 = LOCAL_TIME ( 14, 2, 54.00000000000000000, #301 ) ;
#301 = COORDINATED_UNIVERSAL_TIME_OFFSET ( 5, 0, .BEHIND. ) ;
#302 = CC_DESIGN_PERSON_AND_ORGANIZATION_ASSIGNMENT ( #304, #303, ( #240 ) ) ;
#303 = PERSON_AND_ORGANIZATION_ROLE ( 'classification_officer' ) ;
#304 = PERSON_AND_ORGANIZATION ( #175, #305 ) ;
#305 = ORGANIZATION ( 'UNSPECIFIED', 'UNSPECIFIED', '' ) ;
#306 = DESIGN_CONTEXT ( 'detailed design', #308, 'design' ) ;
#307 = APPLICATION_PROTOCOL_DEFINITION ( 'international standard', 'config_control_design', 1994, #308 ) ;
#308 = APPLICATION_CONTEXT ( 'configuration controlled 3d designs of mechanical parts and assemblies' ) ;
#309 = CC_DESIGN_PERSON_AND_ORGANIZATION_ASSIGNMENT ( #311, #310, ( #176 ) ) ;
#310 = PERSON_AND_ORGANIZATION_ROLE ( 'design_owner' ) ;
#311 = PERSON_AND_ORGANIZATION ( #175, #305 ) ;
ENDSEC;
END-ISO-10303-21;
