ISO-10303-21;
HEADER;
FILE_DESCRIPTION (( 'STEP AP214' ),
    '1' );
FILE_NAME ('WDS-401-205M.step',
    '2012-04-05T09:56:13',
    ( 'sysAdmin' ),
    ( 'SolidWorks' ),
    'SwSTEP 2.0',
    'SolidWorks 2012',
    '' );
FILE_SCHEMA (( 'AUTOMOTIVE_DESIGN' ));
ENDSEC;

DATA;
#1 = EDGE_LOOP ( 'NONE', ( #2, #7 ) ) ;
#2 = ORIENTED_EDGE ( 'NONE', *, *, #3, .T. ) ;
#3 = EDGE_CURVE ( 'NONE', #64, #60, #68, .T. ) ;
#4 = ORIENTED_EDGE ( 'NONE', *, *, #12, .F. ) ;
#5 = ORIENTED_EDGE ( 'NONE', *, *, #49, .T. ) ;
#6 = ADVANCED_FACE ( 'NONE', ( #190, #218 ), #188, .T. ) ;
#7 = ORIENTED_EDGE ( 'NONE', *, *, #53, .T. ) ;
#8 = EDGE_LOOP ( 'NONE', ( #9, #21, #25, #11, #20, #29 ) ) ;
#9 = ORIENTED_EDGE ( 'NONE', *, *, #38, .F. ) ;
#10 = EDGE_LOOP ( 'NONE', ( #39, #4 ) ) ;
#11 = ORIENTED_EDGE ( 'NONE', *, *, #32, .T. ) ;
#12 = EDGE_CURVE ( 'NONE', #86, #66, #215, .T. ) ;
#13 = EDGE_LOOP ( 'NONE', ( #19, #15, #16, #28, #14 ) ) ;
#14 = ORIENTED_EDGE ( 'NONE', *, *, #75, .F. ) ;
#15 = ORIENTED_EDGE ( 'NONE', *, *, #12, .T. ) ;
#16 = ORIENTED_EDGE ( 'NONE', *, *, #51, .T. ) ;
#17 = EDGE_CURVE ( 'NONE', #77, #82, #114, .T. ) ;
#18 = ADVANCED_FACE ( 'NONE', ( #189 ), #177, .T. ) ;
#19 = ORIENTED_EDGE ( 'NONE', *, *, #89, .F. ) ;
#20 = ORIENTED_EDGE ( 'NONE', *, *, #45, .F. ) ;
#21 = ORIENTED_EDGE ( 'NONE', *, *, #17, .T. ) ;
#22 = CLOSED_SHELL ( 'NONE', ( #57, #87, #79, #48, #6, #18, #24 ) ) ;
#23 =( NAMED_UNIT ( * ) SI_UNIT ( $, .STERADIAN. ) SOLID_ANGLE_UNIT ( ) );
#24 = ADVANCED_FACE ( 'NONE', ( #104 ), #217, .T. ) ;
#25 = ORIENTED_EDGE ( 'NONE', *, *, #81, .T. ) ;
#26 = EDGE_LOOP ( 'NONE', ( #58, #88, #36, #84, #83 ) ) ;
#27 = VERTEX_POINT ( 'NONE', #115 ) ;
#28 = ORIENTED_EDGE ( 'NONE', *, *, #17, .F. ) ;
#29 = ORIENTED_EDGE ( 'NONE', *, *, #41, .F. ) ;
#30 = ORIENTED_EDGE ( 'NONE', *, *, #74, .T. ) ;
#31 = VERTEX_POINT ( 'NONE', #173 ) ;
#32 = EDGE_CURVE ( 'NONE', #61, #76, #100, .T. ) ;
#33 = ORIENTED_EDGE ( 'NONE', *, *, #38, .T. ) ;
#34 = EDGE_LOOP ( 'NONE', ( #65, #33, #72, #71, #62, #69 ) ) ;
#35 = EDGE_LOOP ( 'NONE', ( #80, #90, #30, #78, #59 ) ) ;
#36 = ORIENTED_EDGE ( 'NONE', *, *, #63, .F. ) ;
#37 = VERTEX_POINT ( 'NONE', #207 ) ;
#38 = EDGE_CURVE ( 'NONE', #77, #37, #105, .T. ) ;
#39 = ORIENTED_EDGE ( 'NONE', *, *, #70, .F. ) ;
#40 = UNCERTAINTY_MEASURE_WITH_UNIT (LENGTH_MEASURE( 1.000000000000000100E-005 ), #220, 'distance_accuracy_value', 'NONE');
#41 = EDGE_CURVE ( 'NONE', #37, #85, #110, .T. ) ;
#42 = ORIENTED_EDGE ( 'NONE', *, *, #3, .F. ) ;
#43 = ORIENTED_EDGE ( 'NONE', *, *, #73, .T. ) ;
#44 = ORIENTED_EDGE ( 'NONE', *, *, #45, .T. ) ;
#45 = EDGE_CURVE ( 'NONE', #85, #76, #184, .T. ) ;
#46 = ORIENTED_EDGE ( 'NONE', *, *, #52, .F. ) ;
#47 = EDGE_LOOP ( 'NONE', ( #46, #42, #5, #44, #43 ) ) ;
#48 = ADVANCED_FACE ( 'NONE', ( #208 ), #111, .F. ) ;
#49 = EDGE_CURVE ( 'NONE', #64, #85, #139, .T. ) ;
#50 =( GEOMETRIC_REPRESENTATION_CONTEXT ( 3 ) GLOBAL_UNCERTAINTY_ASSIGNED_CONTEXT ( ( #40 ) ) GLOBAL_UNIT_ASSIGNED_CONTEXT ( ( #220, #219, #23 ) ) REPRESENTATION_CONTEXT ( 'NONE', 'WORKASPACE' ) );
#51 = EDGE_CURVE ( 'NONE', #66, #82, #134, .T. ) ;
#52 = EDGE_CURVE ( 'NONE', #60, #31, #130, .T. ) ;
#53 = EDGE_CURVE ( 'NONE', #60, #64, #135, .T. ) ;
#54 = MANIFOLD_SOLID_BREP ( 'Cut-Revolve2', #22 ) ;
#55 = DIRECTION ( 'NONE',  ( -0.0000000000000000000, -1.000000000000000000, -0.0000000000000000000 ) ) ;
#56 = CARTESIAN_POINT ( 'NONE',  ( 0.0000000000000000000, 6.099999999999999600, 0.0000000000000000000 ) ) ;
#57 = ADVANCED_FACE ( 'NONE', ( #98 ), #214, .T. ) ;
#58 = ORIENTED_EDGE ( 'NONE', *, *, #70, .T. ) ;
#59 = ORIENTED_EDGE ( 'NONE', *, *, #49, .F. ) ;
#60 = VERTEX_POINT ( 'NONE', #125 ) ;
#61 = VERTEX_POINT ( 'NONE', #96 ) ;
#62 = ORIENTED_EDGE ( 'NONE', *, *, #32, .F. ) ;
#63 = EDGE_CURVE ( 'NONE', #61, #27, #258, .T. ) ;
#64 = VERTEX_POINT ( 'NONE', #123 ) ;
#65 = ORIENTED_EDGE ( 'NONE', *, *, #75, .T. ) ;
#66 = VERTEX_POINT ( 'NONE', #203 ) ;
#67 = AXIS2_PLACEMENT_3D ( 'NONE', #56, #55, #94 ) ;
#68 = CIRCLE ( 'NONE', #67, 8.250000000000000000 ) ;
#69 = ORIENTED_EDGE ( 'NONE', *, *, #63, .T. ) ;
#70 = EDGE_CURVE ( 'NONE', #66, #86, #260, .T. ) ;
#71 = ORIENTED_EDGE ( 'NONE', *, *, #73, .F. ) ;
#72 = ORIENTED_EDGE ( 'NONE', *, *, #74, .F. ) ;
#73 = EDGE_CURVE ( 'NONE', #76, #31, #259, .T. ) ;
#74 = EDGE_CURVE ( 'NONE', #31, #37, #246, .T. ) ;
#75 = EDGE_CURVE ( 'NONE', #27, #77, #235, .T. ) ;
#76 = VERTEX_POINT ( 'NONE', #239 ) ;
#77 = VERTEX_POINT ( 'NONE', #171 ) ;
#78 = ORIENTED_EDGE ( 'NONE', *, *, #41, .T. ) ;
#79 = ADVANCED_FACE ( 'NONE', ( #241 ), #231, .F. ) ;
#80 = ORIENTED_EDGE ( 'NONE', *, *, #53, .F. ) ;
#81 = EDGE_CURVE ( 'NONE', #82, #61, #165, .T. ) ;
#82 = VERTEX_POINT ( 'NONE', #240 ) ;
#83 = ORIENTED_EDGE ( 'NONE', *, *, #51, .F. ) ;
#84 = ORIENTED_EDGE ( 'NONE', *, *, #81, .F. ) ;
#85 = VERTEX_POINT ( 'NONE', #166 ) ;
#86 = VERTEX_POINT ( 'NONE', #167 ) ;
#87 = ADVANCED_FACE ( 'NONE', ( #159 ), #168, .T. ) ;
#88 = ORIENTED_EDGE ( 'NONE', *, *, #89, .T. ) ;
#89 = EDGE_CURVE ( 'NONE', #86, #27, #169, .T. ) ;
#90 = ORIENTED_EDGE ( 'NONE', *, *, #52, .T. ) ;
#91 = UNCERTAINTY_MEASURE_WITH_UNIT (LENGTH_MEASURE( 1.000000000000000100E-005 ), #194, 'distance_accuracy_value', 'NONE');
#92 =( NAMED_UNIT ( * ) SI_UNIT ( $, .STERADIAN. ) SOLID_ANGLE_UNIT ( ) );
#93 =( NAMED_UNIT ( * ) PLANE_ANGLE_UNIT ( ) SI_UNIT ( $, .RADIAN. ) );
#94 = DIRECTION ( 'NONE',  ( 0.0000000000000000000, 0.0000000000000000000, -1.000000000000000000 ) ) ;
#95 = DIRECTION ( 'NONE',  ( 1.000000000000000000, 0.0000000000000000000, 0.0000000000000000000 ) ) ;
#96 = CARTESIAN_POINT ( 'NONE',  ( 16.00000000000000700, 3.985019138073149700, 0.0000000000000000000 ) ) ;
#97 = CARTESIAN_POINT ( 'NONE',  ( 0.0000000000000000000, 35.11378397061991300, 0.0000000000000000000 ) ) ;
#98 = FACE_OUTER_BOUND ( 'NONE', #34, .T. ) ;
#99 =( GEOMETRIC_REPRESENTATION_CONTEXT ( 3 ) GLOBAL_UNCERTAINTY_ASSIGNED_CONTEXT ( ( #91 ) ) GLOBAL_UNIT_ASSIGNED_CONTEXT ( ( #194, #93, #92 ) ) REPRESENTATION_CONTEXT ( 'NONE', 'WORKASPACE' ) );
#100 = CIRCLE ( 'NONE', #205, 35.00000000000000000 ) ;
#101 = DIRECTION ( 'NONE',  ( 0.0000000000000000000, 0.0000000000000000000, -1.000000000000000000 ) ) ;
#102 = DIRECTION ( 'NONE',  ( -0.0000000000000000000, -1.000000000000000000, -0.0000000000000000000 ) ) ;
#103 = CARTESIAN_POINT ( 'NONE',  ( 0.0000000000000000000, 3.985019138073151900, 0.0000000000000000000 ) ) ;
#104 = FACE_OUTER_BOUND ( 'NONE', #8, .T. ) ;
#105 = CIRCLE ( 'NONE', #183, 35.00000000000000000 ) ;
#106 = AXIS2_PLACEMENT_3D ( 'NONE', #180, #179, #178 ) ;
#107 = DIRECTION ( 'NONE',  ( 0.0000000000000000000, 0.0000000000000000000, -1.000000000000000000 ) ) ;
#108 = DIRECTION ( 'NONE',  ( -0.0000000000000000000, -1.000000000000000000, -0.0000000000000000000 ) ) ;
#109 = CARTESIAN_POINT ( 'NONE',  ( 0.0000000000000000000, 1.099999999999999400, 0.0000000000000000000 ) ) ;
#110 = CIRCLE ( 'NONE', #209, 8.250000000000000000 ) ;
#111 = CYLINDRICAL_SURFACE ( 'NONE', #145, 8.250000000000000000 ) ;
#112 = DIRECTION ( 'NONE',  ( 1.000000000000000000, 0.0000000000000000000, -1.224646799147353200E-016 ) ) ;
#113 = DIRECTION ( 'NONE',  ( 1.224646799147353200E-016, -0.0000000000000000000, 1.000000000000000000 ) ) ;
#114 = CIRCLE ( 'NONE', #216, 16.00000000000000400 ) ;
#115 = CARTESIAN_POINT ( 'NONE',  ( 1.959434878635765500E-015, 3.985019138073151900, 16.00000000000000400 ) ) ;
#116 = UNCERTAINTY_MEASURE_WITH_UNIT (LENGTH_MEASURE( 1.000000000000000100E-005 ), #150, 'distance_accuracy_value', 'NONE');
#117 =( NAMED_UNIT ( * ) SI_UNIT ( $, .STERADIAN. ) SOLID_ANGLE_UNIT ( ) );
#118 =( NAMED_UNIT ( * ) PLANE_ANGLE_UNIT ( ) SI_UNIT ( $, .RADIAN. ) );
#119 = AXIS2_PLACEMENT_3D ( 'NONE', #97, #122, #95 ) ;
#120 = DIRECTION ( 'NONE',  ( 0.0000000000000000000, 0.0000000000000000000, -1.000000000000000000 ) ) ;
#121 = DIRECTION ( 'NONE',  ( -0.0000000000000000000, -1.000000000000000000, -0.0000000000000000000 ) ) ;
#122 = DIRECTION ( 'NONE',  ( 0.0000000000000000000, 0.0000000000000000000, 1.000000000000000000 ) ) ;
#123 = CARTESIAN_POINT ( 'NONE',  ( 0.0000000000000000000, 6.099999999999999600, -8.250000000000000000 ) ) ;
#124 = CARTESIAN_POINT ( 'NONE',  ( 0.0000000000000000000, 1.099999999999999400, 0.0000000000000000000 ) ) ;
#125 = CARTESIAN_POINT ( 'NONE',  ( 1.010333609296566500E-015, 6.099999999999999600, 8.250000000000000000 ) ) ;
#126 = FILL_AREA_STYLE_COLOUR ( '', #144 ) ;
#127 = DIRECTION ( 'NONE',  ( -0.0000000000000000000, -1.000000000000000000, -0.0000000000000000000 ) ) ;
#128 = VECTOR ( 'NONE', #127, 1000.000000000000000 ) ;
#129 = CARTESIAN_POINT ( 'NONE',  ( 1.010333609296566500E-015, 0.0000000000000000000, 8.250000000000000000 ) ) ;
#130 = LINE ( 'NONE', #129, #128 ) ;
#131 = DIRECTION ( 'NONE',  ( -0.0000000000000000000, -1.000000000000000000, -0.0000000000000000000 ) ) ;
#132 = VECTOR ( 'NONE', #131, 1000.000000000000000 ) ;
#133 = CARTESIAN_POINT ( 'NONE',  ( 0.0000000000000000000, 0.0000000000000000000, -16.00000000000000000 ) ) ;
#134 = LINE ( 'NONE', #133, #132 ) ;
#135 = CIRCLE ( 'NONE', #206, 8.250000000000000000 ) ;
#136 = DIRECTION ( 'NONE',  ( -0.0000000000000000000, -1.000000000000000000, -0.0000000000000000000 ) ) ;
#137 = VECTOR ( 'NONE', #136, 1000.000000000000000 ) ;
#138 = CARTESIAN_POINT ( 'NONE',  ( 0.0000000000000000000, 0.0000000000000000000, -8.250000000000000000 ) ) ;
#139 = LINE ( 'NONE', #138, #137 ) ;
#140 = DIRECTION ( 'NONE',  ( 0.0000000000000000000, 0.0000000000000000000, -1.000000000000000000 ) ) ;
#141 = DIRECTION ( 'NONE',  ( -0.0000000000000000000, -1.000000000000000000, -0.0000000000000000000 ) ) ;
#142 = CARTESIAN_POINT ( 'NONE',  ( 0.0000000000000000000, 0.0000000000000000000, 0.0000000000000000000 ) ) ;
#143 = CARTESIAN_POINT ( 'NONE',  ( 0.0000000000000000000, 6.099999999999999600, 0.0000000000000000000 ) ) ;
#144 = COLOUR_RGB ( '',0.7529411764705882200, 0.7529411764705882200, 0.7529411764705882200 ) ;
#145 = AXIS2_PLACEMENT_3D ( 'NONE', #142, #141, #140 ) ;
#146 = DIRECTION ( 'NONE',  ( 0.0000000000000000000, 0.0000000000000000000, -1.000000000000000000 ) ) ;
#147 = DIRECTION ( 'NONE',  ( -0.0000000000000000000, -1.000000000000000000, -0.0000000000000000000 ) ) ;
#148 = CARTESIAN_POINT ( 'NONE',  ( 0.0000000000000000000, 1.099999999999999400, 0.0000000000000000000 ) ) ;
#149 = AXIS2_PLACEMENT_3D ( 'NONE', #148, #147, #146 ) ;
#150 =( LENGTH_UNIT ( ) NAMED_UNIT ( * ) SI_UNIT ( .MILLI., .METRE. ) );
#151 = FILL_AREA_STYLE ('',( #160 ) ) ;
#152 = DIRECTION ( 'NONE',  ( -0.0000000000000000000, -1.000000000000000000, -0.0000000000000000000 ) ) ;
#153 = VECTOR ( 'NONE', #152, 1000.000000000000000 ) ;
#154 = CARTESIAN_POINT ( 'NONE',  ( 1.959434878635765100E-015, 0.0000000000000000000, 16.00000000000000000 ) ) ;
#155 = DIRECTION ( 'NONE',  ( 0.0000000000000000000, 0.0000000000000000000, -1.000000000000000000 ) ) ;
#156 = DIRECTION ( 'NONE',  ( -0.0000000000000000000, -1.000000000000000000, -0.0000000000000000000 ) ) ;
#157 = CARTESIAN_POINT ( 'NONE',  ( 0.0000000000000000000, 0.0000000000000000000, 0.0000000000000000000 ) ) ;
#158 = AXIS2_PLACEMENT_3D ( 'NONE', #157, #156, #155 ) ;
#159 = FACE_OUTER_BOUND ( 'NONE', #26, .T. ) ;
#160 = FILL_AREA_STYLE_COLOUR ( '', #228 ) ;
#161 = DIRECTION ( 'NONE',  ( 0.0000000000000000000, 0.0000000000000000000, -1.000000000000000000 ) ) ;
#162 = DIRECTION ( 'NONE',  ( -0.0000000000000000000, -1.000000000000000000, -0.0000000000000000000 ) ) ;
#163 = CARTESIAN_POINT ( 'NONE',  ( 0.0000000000000000000, 3.985019138073151900, 0.0000000000000000000 ) ) ;
#164 = DIRECTION ( 'NONE',  ( 0.0000000000000000000, 0.0000000000000000000, -1.000000000000000000 ) ) ;
#165 = CIRCLE ( 'NONE', #172, 16.00000000000000400 ) ;
#166 = CARTESIAN_POINT ( 'NONE',  ( 0.0000000000000000000, 1.099999999999999400, -8.250000000000000000 ) ) ;
#167 = CARTESIAN_POINT ( 'NONE',  ( 1.959434878635765100E-015, 6.099999999999999600, 16.00000000000000000 ) ) ;
#168 = CYLINDRICAL_SURFACE ( 'NONE', #158, 16.00000000000000000 ) ;
#169 = LINE ( 'NONE', #154, #153 ) ;
#170 = DIRECTION ( 'NONE',  ( -0.0000000000000000000, -1.000000000000000000, -0.0000000000000000000 ) ) ;
#171 = CARTESIAN_POINT ( 'NONE',  ( -16.00000000000000700, 3.985019138073149700, 1.959434878635765900E-015 ) ) ;
#172 = AXIS2_PLACEMENT_3D ( 'NONE', #163, #162, #161 ) ;
#173 = CARTESIAN_POINT ( 'NONE',  ( 1.010333609296566500E-015, 1.099999999999999400, 8.250000000000000000 ) ) ;
#174 = DIRECTION ( 'NONE',  ( 0.0000000000000000000, -0.0000000000000000000, 1.000000000000000000 ) ) ;
#175 = DIRECTION ( 'NONE',  ( 0.0000000000000000000, 1.000000000000000000, 0.0000000000000000000 ) ) ;
#176 = CARTESIAN_POINT ( 'NONE',  ( 8.250000000000000000, 6.099999999999999600, 0.0000000000000000000 ) ) ;
#177 = CYLINDRICAL_SURFACE ( 'NONE', #181, 16.00000000000000000 ) ;
#178 = DIRECTION ( 'NONE',  ( 0.0000000000000000000, 0.0000000000000000000, -1.000000000000000000 ) ) ;
#179 = DIRECTION ( 'NONE',  ( -0.0000000000000000000, -1.000000000000000000, -0.0000000000000000000 ) ) ;
#180 = CARTESIAN_POINT ( 'NONE',  ( 0.0000000000000000000, 6.099999999999999600, 0.0000000000000000000 ) ) ;
#181 = AXIS2_PLACEMENT_3D ( 'NONE', #193, #192, #191 ) ;
#182 = CARTESIAN_POINT ( 'NONE',  ( 0.0000000000000000000, 35.11378397061991300, 0.0000000000000000000 ) ) ;
#183 = AXIS2_PLACEMENT_3D ( 'NONE', #182, #113, #112 ) ;
#184 = CIRCLE ( 'NONE', #149, 8.250000000000000000 ) ;
#185 = DIRECTION ( 'NONE',  ( -1.000000000000000000, 0.0000000000000000000, 0.0000000000000000000 ) ) ;
#186 = DIRECTION ( 'NONE',  ( 0.0000000000000000000, 0.0000000000000000000, -1.000000000000000000 ) ) ;
#187 = AXIS2_PLACEMENT_3D ( 'NONE', #176, #175, #174 ) ;
#188 = PLANE ( 'NONE',  #187 ) ;
#189 = FACE_OUTER_BOUND ( 'NONE', #13, .T. ) ;
#190 = FACE_BOUND ( 'NONE', #1, .T. ) ;
#191 = DIRECTION ( 'NONE',  ( 0.0000000000000000000, 0.0000000000000000000, -1.000000000000000000 ) ) ;
#192 = DIRECTION ( 'NONE',  ( -0.0000000000000000000, -1.000000000000000000, -0.0000000000000000000 ) ) ;
#193 = CARTESIAN_POINT ( 'NONE',  ( 0.0000000000000000000, 0.0000000000000000000, 0.0000000000000000000 ) ) ;
#194 =( LENGTH_UNIT ( ) NAMED_UNIT ( * ) SI_UNIT ( .MILLI., .METRE. ) );
#195 = MECHANICAL_DESIGN_GEOMETRIC_PRESENTATION_REPRESENTATION (  '', ( #197 ), #99 ) ;
#196 = PRESENTATION_LAYER_ASSIGNMENT (  '', '', ( #197 ) ) ;
#197 = STYLED_ITEM ( 'NONE', ( #198 ), #54 ) ;
#198 = PRESENTATION_STYLE_ASSIGNMENT (( #199 ) ) ;
#199 = SURFACE_STYLE_USAGE ( .BOTH. , #200 ) ;
#200 = SURFACE_SIDE_STYLE ('',( #201 ) ) ;
#201 = SURFACE_STYLE_FILL_AREA ( #202 ) ;
#202 = FILL_AREA_STYLE ('',( #126 ) ) ;
#203 = CARTESIAN_POINT ( 'NONE',  ( 0.0000000000000000000, 6.099999999999999600, -16.00000000000000000 ) ) ;
#204 = CARTESIAN_POINT ( 'NONE',  ( 0.0000000000000000000, 35.11378397061991300, 0.0000000000000000000 ) ) ;
#205 = AXIS2_PLACEMENT_3D ( 'NONE', #204, #186, #185 ) ;
#206 = AXIS2_PLACEMENT_3D ( 'NONE', #143, #121, #120 ) ;
#207 = CARTESIAN_POINT ( 'NONE',  ( -8.250000000000000000, 1.099999999999999400, 1.484884243966166000E-015 ) ) ;
#208 = FACE_OUTER_BOUND ( 'NONE', #47, .T. ) ;
#209 = AXIS2_PLACEMENT_3D ( 'NONE', #109, #108, #107 ) ;
#210 = DIRECTION ( 'NONE',  ( 1.000000000000000000, 0.0000000000000000000, 0.0000000000000000000 ) ) ;
#211 = DIRECTION ( 'NONE',  ( 0.0000000000000000000, 0.0000000000000000000, 1.000000000000000000 ) ) ;
#212 = CARTESIAN_POINT ( 'NONE',  ( 0.0000000000000000000, 35.11378397061991300, 0.0000000000000000000 ) ) ;
#213 = AXIS2_PLACEMENT_3D ( 'NONE', #212, #211, #210 ) ;
#214 = SPHERICAL_SURFACE ( 'NONE', #119, 35.00000000000000000 ) ;
#215 = CIRCLE ( 'NONE', #106, 16.00000000000000000 ) ;
#216 = AXIS2_PLACEMENT_3D ( 'NONE', #103, #102, #101 ) ;
#217 = SPHERICAL_SURFACE ( 'NONE', #213, 35.00000000000000000 ) ;
#218 = FACE_OUTER_BOUND ( 'NONE', #10, .T. ) ;
#219 =( NAMED_UNIT ( * ) PLANE_ANGLE_UNIT ( ) SI_UNIT ( $, .RADIAN. ) );
#220 =( LENGTH_UNIT ( ) NAMED_UNIT ( * ) SI_UNIT ( .MILLI., .METRE. ) );
#221 = MECHANICAL_DESIGN_GEOMETRIC_PRESENTATION_REPRESENTATION (  '', ( #223 ), #50 ) ;
#222 = PRESENTATION_LAYER_ASSIGNMENT (  '', '', ( #223 ) ) ;
#223 = STYLED_ITEM ( 'NONE', ( #224 ), #229 ) ;
#224 = PRESENTATION_STYLE_ASSIGNMENT (( #225 ) ) ;
#225 = SURFACE_STYLE_USAGE ( .BOTH. , #226 ) ;
#226 = SURFACE_SIDE_STYLE ('',( #227 ) ) ;
#227 = SURFACE_STYLE_FILL_AREA ( #151 ) ;
#228 = COLOUR_RGB ( '',0.7529411764705882200, 0.7529411764705882200, 0.7529411764705882200 ) ;
#229 = ADVANCED_BREP_SHAPE_REPRESENTATION ( 'WDS-401-205M', ( #54, #265 ), #230 ) ;
#230 =( GEOMETRIC_REPRESENTATION_CONTEXT ( 3 ) GLOBAL_UNCERTAINTY_ASSIGNED_CONTEXT ( ( #116 ) ) GLOBAL_UNIT_ASSIGNED_CONTEXT ( ( #150, #118, #117 ) ) REPRESENTATION_CONTEXT ( 'NONE', 'WORKASPACE' ) );
#231 = CYLINDRICAL_SURFACE ( 'NONE', #253, 8.250000000000000000 ) ;
#232 = DIRECTION ( 'NONE',  ( 0.0000000000000000000, 0.0000000000000000000, -1.000000000000000000 ) ) ;
#233 = DIRECTION ( 'NONE',  ( -0.0000000000000000000, -1.000000000000000000, -0.0000000000000000000 ) ) ;
#234 = CARTESIAN_POINT ( 'NONE',  ( 0.0000000000000000000, 3.985019138073151900, 0.0000000000000000000 ) ) ;
#235 = CIRCLE ( 'NONE', #247, 16.00000000000000400 ) ;
#236 = CARTESIAN_POINT ( 'NONE',  ( 0.0000000000000000000, 0.0000000000000000000, 0.0000000000000000000 ) ) ;
#237 = DIRECTION ( 'NONE',  ( 0.0000000000000000000, 0.0000000000000000000, -1.000000000000000000 ) ) ;
#238 = DIRECTION ( 'NONE',  ( -0.0000000000000000000, -1.000000000000000000, -0.0000000000000000000 ) ) ;
#239 = CARTESIAN_POINT ( 'NONE',  ( 8.250000000000000000, 1.099999999999999400, 0.0000000000000000000 ) ) ;
#240 = CARTESIAN_POINT ( 'NONE',  ( 0.0000000000000000000, 3.985019138073151900, -16.00000000000000400 ) ) ;
#241 = FACE_OUTER_BOUND ( 'NONE', #35, .T. ) ;
#242 = DIRECTION ( 'NONE',  ( 0.0000000000000000000, 0.0000000000000000000, -1.000000000000000000 ) ) ;
#243 = DIRECTION ( 'NONE',  ( -0.0000000000000000000, -1.000000000000000000, -0.0000000000000000000 ) ) ;
#244 = CARTESIAN_POINT ( 'NONE',  ( 0.0000000000000000000, 1.099999999999999400, 0.0000000000000000000 ) ) ;
#245 = AXIS2_PLACEMENT_3D ( 'NONE', #244, #243, #242 ) ;
#246 = CIRCLE ( 'NONE', #251, 8.250000000000000000 ) ;
#247 = AXIS2_PLACEMENT_3D ( 'NONE', #234, #233, #232 ) ;
#248 = DIRECTION ( 'NONE',  ( 0.0000000000000000000, 0.0000000000000000000, -1.000000000000000000 ) ) ;
#249 = DIRECTION ( 'NONE',  ( -0.0000000000000000000, -1.000000000000000000, -0.0000000000000000000 ) ) ;
#250 = CARTESIAN_POINT ( 'NONE',  ( 0.0000000000000000000, 6.099999999999999600, 0.0000000000000000000 ) ) ;
#251 = AXIS2_PLACEMENT_3D ( 'NONE', #124, #238, #237 ) ;
#252 = AXIS2_PLACEMENT_3D ( 'NONE', #250, #249, #248 ) ;
#253 = AXIS2_PLACEMENT_3D ( 'NONE', #236, #170, #164 ) ;
#254 = DIRECTION ( 'NONE',  ( 0.0000000000000000000, 0.0000000000000000000, -1.000000000000000000 ) ) ;
#255 = DIRECTION ( 'NONE',  ( -0.0000000000000000000, -1.000000000000000000, -0.0000000000000000000 ) ) ;
#256 = CARTESIAN_POINT ( 'NONE',  ( 0.0000000000000000000, 3.985019138073151900, 0.0000000000000000000 ) ) ;
#257 = AXIS2_PLACEMENT_3D ( 'NONE', #256, #255, #254 ) ;
#258 = CIRCLE ( 'NONE', #257, 16.00000000000000400 ) ;
#259 = CIRCLE ( 'NONE', #245, 8.250000000000000000 ) ;
#260 = CIRCLE ( 'NONE', #252, 16.00000000000000000 ) ;
#261 = DIRECTION ( 'NONE',  ( 1.000000000000000000, 0.0000000000000000000, 0.0000000000000000000 ) ) ;
#262 = DIRECTION ( 'NONE',  ( 0.0000000000000000000, 0.0000000000000000000, 1.000000000000000000 ) ) ;
#263 = CARTESIAN_POINT ( 'NONE',  ( 0.0000000000000000000, 0.0000000000000000000, 0.0000000000000000000 ) ) ;
#264 = APPLICATION_CONTEXT ( 'automotive_design' ) ;
#265 = AXIS2_PLACEMENT_3D ( 'NONE', #263, #262, #261 ) ;
#266 = PRODUCT_DEFINITION_SHAPE ( 'NONE', 'NONE',  #270 ) ;
#267 = PRODUCT_RELATED_PRODUCT_CATEGORY ( 'part', '', ( #274 ) ) ;
#268 = PRODUCT_DEFINITION_FORMATION_WITH_SPECIFIED_SOURCE ( 'ANY', '', #274, .NOT_KNOWN. ) ;
#269 = SHAPE_DEFINITION_REPRESENTATION ( #266, #229 ) ;
#270 = PRODUCT_DEFINITION ( 'UNKNOWN', '', #268, #271 ) ;
#271 = PRODUCT_DEFINITION_CONTEXT ( 'detailed design', #273, 'design' ) ;
#272 = APPLICATION_PROTOCOL_DEFINITION ( 'draft international standard', 'automotive_design', 1998, #273 ) ;
#273 = APPLICATION_CONTEXT ( 'automotive_design' ) ;
#274 = PRODUCT ( 'WDS-401-205M', 'WDS-401-205M', '', ( #275 ) ) ;
#275 = PRODUCT_CONTEXT ( 'NONE', #264, 'mechanical' ) ;
#276 = APPLICATION_PROTOCOL_DEFINITION ( 'draft international standard', 'automotive_design', 1998, #264 ) ;
ENDSEC;
END-ISO-10303-21;
