ISO-10303-21;
HEADER;
FILE_DESCRIPTION (( 'STEP AP214' ),
    '1' );
FILE_NAME ('WDS-401-203M.step',
    '2011-12-01T12:21:21',
    ( 'SysAdmin' ),
    ( 'SolidWorks' ),
    'SwSTEP 2.0',
    'SolidWorks 2012',
    '' );
FILE_SCHEMA (( 'AUTOMOTIVE_DESIGN' ));
ENDSEC;

DATA;
#1 = VERTEX_POINT ( 'NONE', #54 ) ;
#2 = ORIENTED_EDGE ( 'NONE', *, *, #86, .T. ) ;
#3 = ORIENTED_EDGE ( 'NONE', *, *, #43, .F. ) ;
#4 = ORIENTED_EDGE ( 'NONE', *, *, #39, .T. ) ;
#5 = VERTEX_POINT ( 'NONE', #67 ) ;
#6 = VERTEX_POINT ( 'NONE', #66 ) ;
#7 = VERTEX_POINT ( 'NONE', #55 ) ;
#8 = ADVANCED_FACE ( 'NONE', ( #51 ), #13, .T. ) ;
#9 = ORIENTED_EDGE ( 'NONE', *, *, #89, .F. ) ;
#10 = VERTEX_POINT ( 'NONE', #49 ) ;
#11 = EDGE_CURVE ( 'NONE', #7, #79, #47, .T. ) ;
#12 = EDGE_CURVE ( 'NONE', #14, #93, #53, .T. ) ;
#13 = CYLINDRICAL_SURFACE ( 'NONE', #108, 11.00000000000000000 ) ;
#14 = VERTEX_POINT ( 'NONE', #77 ) ;
#15 = VERTEX_POINT ( 'NONE', #25 ) ;
#16 = EDGE_CURVE ( 'NONE', #1, #14, #110, .T. ) ;
#17 = VERTEX_POINT ( 'NONE', #136 ) ;
#18 = ORIENTED_EDGE ( 'NONE', *, *, #16, .F. ) ;
#19 = CLOSED_SHELL ( 'NONE', ( #82, #8, #95, #31, #99, #30, #105 ) ) ;
#20 = EDGE_CURVE ( 'NONE', #10, #93, #135, .T. ) ;
#21 = DIRECTION ( 'NONE',  ( -0.0000000000000000000, -1.000000000000000000, -0.0000000000000000000 ) ) ;
#22 = VECTOR ( 'NONE', #21, 1000.000000000000000 ) ;
#23 = CARTESIAN_POINT ( 'NONE',  ( 1.347111479062088400E-015, 0.0000000000000000000, 11.00000000000000000 ) ) ;
#24 = DIRECTION ( 'NONE',  ( 0.0000000000000000000, 0.0000000000000000000, -1.000000000000000000 ) ) ;
#25 = CARTESIAN_POINT ( 'NONE',  ( 0.0000000000000000000, 5.299999999999998000, -6.000000000000000000 ) ) ;
#26 = DIRECTION ( 'NONE',  ( 0.0000000000000000000, 0.0000000000000000000, -1.000000000000000000 ) ) ;
#27 = DIRECTION ( 'NONE',  ( -0.0000000000000000000, -1.000000000000000000, -0.0000000000000000000 ) ) ;
#28 = CARTESIAN_POINT ( 'NONE',  ( 0.0000000000000000000, 25.16932219902319500, 0.0000000000000000000 ) ) ;
#29 = ORIENTED_EDGE ( 'NONE', *, *, #97, .F. ) ;
#30 = ADVANCED_FACE ( 'NONE', ( #242 ), #189, .T. ) ;
#31 = ADVANCED_FACE ( 'NONE', ( #228 ), #216, .F. ) ;
#32 = EDGE_LOOP ( 'NONE', ( #65, #59, #61, #36, #29, #62 ) ) ;
#33 = EDGE_CURVE ( 'NONE', #7, #6, #196, .T. ) ;
#34 = EDGE_CURVE ( 'NONE', #15, #10, #193, .T. ) ;
#35 = ORIENTED_EDGE ( 'NONE', *, *, #71, .F. ) ;
#36 = ORIENTED_EDGE ( 'NONE', *, *, #16, .T. ) ;
#37 = ORIENTED_EDGE ( 'NONE', *, *, #12, .T. ) ;
#38 = ORIENTED_EDGE ( 'NONE', *, *, #39, .F. ) ;
#39 = EDGE_CURVE ( 'NONE', #6, #7, #190, .T. ) ;
#40 = ORIENTED_EDGE ( 'NONE', *, *, #11, .T. ) ;
#41 = EDGE_LOOP ( 'NONE', ( #46, #96, #45, #94, #35 ) ) ;
#42 = ORIENTED_EDGE ( 'NONE', *, *, #88, .F. ) ;
#43 = EDGE_CURVE ( 'NONE', #6, #5, #243, .T. ) ;
#44 = VERTEX_POINT ( 'NONE', #227 ) ;
#45 = ORIENTED_EDGE ( 'NONE', *, *, #91, .T. ) ;
#46 = ORIENTED_EDGE ( 'NONE', *, *, #107, .F. ) ;
#47 = LINE ( 'NONE', #23, #22 ) ;
#48 = AXIS2_PLACEMENT_3D ( 'NONE', #76, #75, #74 ) ;
#49 = CARTESIAN_POINT ( 'NONE',  ( 7.347880794884119700E-016, 5.299999999999998000, 6.000000000000000000 ) ) ;
#50 = AXIS2_PLACEMENT_3D ( 'NONE', #28, #24, #78 ) ;
#51 = FACE_OUTER_BOUND ( 'NONE', #83, .T. ) ;
#52 = CARTESIAN_POINT ( 'NONE',  ( 0.0000000000000000000, 0.0000000000000000000, 0.0000000000000000000 ) ) ;
#53 = CIRCLE ( 'NONE', #48, 6.000000000000000000 ) ;
#54 = CARTESIAN_POINT ( 'NONE',  ( 11.00000000000000500, 2.719377878379546100, 0.0000000000000000000 ) ) ;
#55 = CARTESIAN_POINT ( 'NONE',  ( 1.347111479062088400E-015, 5.299999999999998900, 11.00000000000000000 ) ) ;
#56 = ORIENTED_EDGE ( 'NONE', *, *, #71, .T. ) ;
#57 = ORIENTED_EDGE ( 'NONE', *, *, #33, .T. ) ;
#58 = EDGE_CURVE ( 'NONE', #80, #5, #156, .T. ) ;
#59 = ORIENTED_EDGE ( 'NONE', *, *, #58, .T. ) ;
#60 = ORIENTED_EDGE ( 'NONE', *, *, #58, .F. ) ;
#61 = ORIENTED_EDGE ( 'NONE', *, *, #88, .T. ) ;
#62 = ORIENTED_EDGE ( 'NONE', *, *, #106, .F. ) ;
#63 = ORIENTED_EDGE ( 'NONE', *, *, #33, .F. ) ;
#64 = ORIENTED_EDGE ( 'NONE', *, *, #34, .T. ) ;
#65 = ORIENTED_EDGE ( 'NONE', *, *, #84, .F. ) ;
#66 = CARTESIAN_POINT ( 'NONE',  ( 0.0000000000000000000, 5.299999999999998900, -11.00000000000000000 ) ) ;
#67 = CARTESIAN_POINT ( 'NONE',  ( 0.0000000000000000000, 2.719377878379547500, -11.00000000000000000 ) ) ;
#68 = ORIENTED_EDGE ( 'NONE', *, *, #86, .F. ) ;
#69 = ORIENTED_EDGE ( 'NONE', *, *, #97, .T. ) ;
#70 = ORIENTED_EDGE ( 'NONE', *, *, #107, .T. ) ;
#71 = EDGE_CURVE ( 'NONE', #15, #44, #221, .T. ) ;
#72 = EDGE_LOOP ( 'NONE', ( #38, #63 ) ) ;
#73 = EDGE_LOOP ( 'NONE', ( #103, #57, #102, #60, #68 ) ) ;
#74 = DIRECTION ( 'NONE',  ( 0.0000000000000000000, 0.0000000000000000000, -1.000000000000000000 ) ) ;
#75 = DIRECTION ( 'NONE',  ( -0.0000000000000000000, -1.000000000000000000, -0.0000000000000000000 ) ) ;
#76 = CARTESIAN_POINT ( 'NONE',  ( 0.0000000000000000000, 0.8999999999999989100, 0.0000000000000000000 ) ) ;
#77 = CARTESIAN_POINT ( 'NONE',  ( 6.000000000000000000, 0.8999999999999989100, 0.0000000000000000000 ) ) ;
#78 = DIRECTION ( 'NONE',  ( -1.000000000000000000, 0.0000000000000000000, 0.0000000000000000000 ) ) ;
#79 = VERTEX_POINT ( 'NONE', #192 ) ;
#80 = VERTEX_POINT ( 'NONE', #207 ) ;
#81 = ORIENTED_EDGE ( 'NONE', *, *, #12, .F. ) ;
#82 = ADVANCED_FACE ( 'NONE', ( #223 ), #208, .T. ) ;
#83 = EDGE_LOOP ( 'NONE', ( #4, #40, #9, #42, #3 ) ) ;
#84 = EDGE_CURVE ( 'NONE', #80, #17, #131, .T. ) ;
#85 = ORIENTED_EDGE ( 'NONE', *, *, #91, .F. ) ;
#86 = EDGE_CURVE ( 'NONE', #79, #80, #245, .T. ) ;
#87 = EDGE_LOOP ( 'NONE', ( #2, #90, #85, #81, #18, #92 ) ) ;
#88 = EDGE_CURVE ( 'NONE', #5, #1, #181, .T. ) ;
#89 = EDGE_CURVE ( 'NONE', #1, #79, #169, .T. ) ;
#90 = ORIENTED_EDGE ( 'NONE', *, *, #84, .T. ) ;
#91 = EDGE_CURVE ( 'NONE', #93, #17, #171, .T. ) ;
#92 = ORIENTED_EDGE ( 'NONE', *, *, #89, .T. ) ;
#93 = VERTEX_POINT ( 'NONE', #178 ) ;
#94 = ORIENTED_EDGE ( 'NONE', *, *, #106, .T. ) ;
#95 = ADVANCED_FACE ( 'NONE', ( #163 ), #170, .F. ) ;
#96 = ORIENTED_EDGE ( 'NONE', *, *, #20, .T. ) ;
#97 = EDGE_CURVE ( 'NONE', #44, #14, #118, .T. ) ;
#98 = EDGE_LOOP ( 'NONE', ( #104, #101, #56, #69, #37 ) ) ;
#99 = ADVANCED_FACE ( 'NONE', ( #117, #120 ), #119, .T. ) ;
#100 = EDGE_LOOP ( 'NONE', ( #64, #70 ) ) ;
#101 = ORIENTED_EDGE ( 'NONE', *, *, #34, .F. ) ;
#102 = ORIENTED_EDGE ( 'NONE', *, *, #43, .T. ) ;
#103 = ORIENTED_EDGE ( 'NONE', *, *, #11, .F. ) ;
#104 = ORIENTED_EDGE ( 'NONE', *, *, #20, .F. ) ;
#105 = ADVANCED_FACE ( 'NONE', ( #179 ), #235, .T. ) ;
#106 = EDGE_CURVE ( 'NONE', #17, #44, #149, .T. ) ;
#107 = EDGE_CURVE ( 'NONE', #10, #15, #150, .T. ) ;
#108 = AXIS2_PLACEMENT_3D ( 'NONE', #52, #27, #26 ) ;
#109 = MANIFOLD_SOLID_BREP ( 'Cut-Revolve2', #19 ) ;
#110 = CIRCLE ( 'NONE', #50, 25.00000000000000000 ) ;
#111 = DIRECTION ( 'NONE',  ( 0.0000000000000000000, 0.0000000000000000000, -1.000000000000000000 ) ) ;
#112 = DIRECTION ( 'NONE',  ( -0.0000000000000000000, -1.000000000000000000, -0.0000000000000000000 ) ) ;
#113 = CARTESIAN_POINT ( 'NONE',  ( 0.0000000000000000000, 0.8999999999999989100, 0.0000000000000000000 ) ) ;
#114 = AXIS2_PLACEMENT_3D ( 'NONE', #230, #229, #151 ) ;
#115 = DIRECTION ( 'NONE',  ( 0.0000000000000000000, 0.0000000000000000000, -1.000000000000000000 ) ) ;
#116 = DIRECTION ( 'NONE',  ( -0.0000000000000000000, -1.000000000000000000, -0.0000000000000000000 ) ) ;
#117 = FACE_BOUND ( 'NONE', #100, .T. ) ;
#118 = CIRCLE ( 'NONE', #166, 6.000000000000000000 ) ;
#119 = PLANE ( 'NONE',  #164 ) ;
#120 = FACE_OUTER_BOUND ( 'NONE', #72, .T. ) ;
#121 = AXIS2_PLACEMENT_3D ( 'NONE', #152, #195, #194 ) ;
#122 = PRODUCT_DEFINITION_SHAPE ( 'NONE', 'NONE',  #126 ) ;
#123 = PRODUCT_RELATED_PRODUCT_CATEGORY ( 'part', '', ( #273 ) ) ;
#124 = PRODUCT_DEFINITION_FORMATION_WITH_SPECIFIED_SOURCE ( 'ANY', '', #273, .NOT_KNOWN. ) ;
#125 = SHAPE_DEFINITION_REPRESENTATION ( #122, #197 ) ;
#126 = PRODUCT_DEFINITION ( 'UNKNOWN', '', #124, #127 ) ;
#127 = PRODUCT_DEFINITION_CONTEXT ( 'detailed design', #129, 'design' ) ;
#128 = APPLICATION_PROTOCOL_DEFINITION ( 'draft international standard', 'automotive_design', 1998, #129 ) ;
#129 = APPLICATION_CONTEXT ( 'automotive_design' ) ;
#130 = CARTESIAN_POINT ( 'NONE',  ( 0.0000000000000000000, 25.16932219902319500, 0.0000000000000000000 ) ) ;
#131 = CIRCLE ( 'NONE', #206, 25.00000000000000000 ) ;
#132 = DIRECTION ( 'NONE',  ( 1.000000000000000000, 0.0000000000000000000, 0.0000000000000000000 ) ) ;
#133 = VECTOR ( 'NONE', #191, 1000.000000000000000 ) ;
#134 = CARTESIAN_POINT ( 'NONE',  ( 7.347880794884119700E-016, 0.0000000000000000000, 6.000000000000000000 ) ) ;
#135 = LINE ( 'NONE', #134, #133 ) ;
#136 = CARTESIAN_POINT ( 'NONE',  ( -6.000000000000000000, 0.8999999999999989100, 1.040949779275249900E-015 ) ) ;
#137 = CARTESIAN_POINT ( 'NONE',  ( 0.0000000000000000000, 0.0000000000000000000, 0.0000000000000000000 ) ) ;
#138 = SURFACE_SIDE_STYLE ('',( #139 ) ) ;
#139 = SURFACE_STYLE_FILL_AREA ( #140 ) ;
#140 = FILL_AREA_STYLE ('',( #237 ) ) ;
#141 = COLOUR_RGB ( '',0.7529411764705882200, 0.7529411764705882200, 0.7529411764705882200 ) ;
#142 = DIRECTION ( 'NONE',  ( 0.0000000000000000000, 0.0000000000000000000, -1.000000000000000000 ) ) ;
#143 = DIRECTION ( 'NONE',  ( -0.0000000000000000000, -1.000000000000000000, -0.0000000000000000000 ) ) ;
#144 = CARTESIAN_POINT ( 'NONE',  ( 0.0000000000000000000, 5.299999999999998000, 0.0000000000000000000 ) ) ;
#145 = FILL_AREA_STYLE ('',( #231 ) ) ;
#146 = DIRECTION ( 'NONE',  ( 0.0000000000000000000, 0.0000000000000000000, -1.000000000000000000 ) ) ;
#147 = DIRECTION ( 'NONE',  ( -0.0000000000000000000, -1.000000000000000000, -0.0000000000000000000 ) ) ;
#148 = CARTESIAN_POINT ( 'NONE',  ( 0.0000000000000000000, 0.8999999999999989100, 0.0000000000000000000 ) ) ;
#149 = CIRCLE ( 'NONE', #236, 6.000000000000000000 ) ;
#150 = CIRCLE ( 'NONE', #165, 6.000000000000000000 ) ;
#151 = DIRECTION ( 'NONE',  ( 1.000000000000000000, 0.0000000000000000000, 0.0000000000000000000 ) ) ;
#152 = CARTESIAN_POINT ( 'NONE',  ( 0.0000000000000000000, 5.299999999999998900, 0.0000000000000000000 ) ) ;
#153 = DIRECTION ( 'NONE',  ( 0.0000000000000000000, 0.0000000000000000000, -1.000000000000000000 ) ) ;
#154 = DIRECTION ( 'NONE',  ( -0.0000000000000000000, -1.000000000000000000, -0.0000000000000000000 ) ) ;
#155 = CARTESIAN_POINT ( 'NONE',  ( 0.0000000000000000000, 0.0000000000000000000, 0.0000000000000000000 ) ) ;
#156 = CIRCLE ( 'NONE', #212, 11.00000000000000000 ) ;
#157 = AXIS2_PLACEMENT_3D ( 'NONE', #137, #214, #217 ) ;
#158 = DIRECTION ( 'NONE',  ( 0.0000000000000000000, 0.0000000000000000000, -1.000000000000000000 ) ) ;
#159 = DIRECTION ( 'NONE',  ( -0.0000000000000000000, -1.000000000000000000, -0.0000000000000000000 ) ) ;
#160 = CARTESIAN_POINT ( 'NONE',  ( 0.0000000000000000000, 0.8999999999999989100, 0.0000000000000000000 ) ) ;
#161 = AXIS2_PLACEMENT_3D ( 'NONE', #160, #159, #158 ) ;
#162 = CARTESIAN_POINT ( 'NONE',  ( 0.0000000000000000000, 0.0000000000000000000, 0.0000000000000000000 ) ) ;
#163 = FACE_OUTER_BOUND ( 'NONE', #41, .T. ) ;
#164 = AXIS2_PLACEMENT_3D ( 'NONE', #234, #233, #232 ) ;
#165 = AXIS2_PLACEMENT_3D ( 'NONE', #144, #143, #142 ) ;
#166 = AXIS2_PLACEMENT_3D ( 'NONE', #113, #112, #111 ) ;
#167 = DIRECTION ( 'NONE',  ( 0.0000000000000000000, 0.0000000000000000000, -1.000000000000000000 ) ) ;
#168 = DIRECTION ( 'NONE',  ( -0.0000000000000000000, -1.000000000000000000, -0.0000000000000000000 ) ) ;
#169 = CIRCLE ( 'NONE', #180, 11.00000000000000000 ) ;
#170 = CYLINDRICAL_SURFACE ( 'NONE', #175, 6.000000000000000000 ) ;
#171 = CIRCLE ( 'NONE', #161, 6.000000000000000000 ) ;
#172 = DIRECTION ( 'NONE',  ( 0.0000000000000000000, 0.0000000000000000000, -1.000000000000000000 ) ) ;
#173 = DIRECTION ( 'NONE',  ( -0.0000000000000000000, -1.000000000000000000, -0.0000000000000000000 ) ) ;
#174 = CARTESIAN_POINT ( 'NONE',  ( 0.0000000000000000000, 2.719377878379547500, 0.0000000000000000000 ) ) ;
#175 = AXIS2_PLACEMENT_3D ( 'NONE', #162, #116, #115 ) ;
#176 = DIRECTION ( 'NONE',  ( 0.0000000000000000000, 0.0000000000000000000, -1.000000000000000000 ) ) ;
#177 = DIRECTION ( 'NONE',  ( -0.0000000000000000000, -1.000000000000000000, -0.0000000000000000000 ) ) ;
#178 = CARTESIAN_POINT ( 'NONE',  ( 7.347880794884119700E-016, 0.8999999999999989100, 6.000000000000000000 ) ) ;
#179 = FACE_OUTER_BOUND ( 'NONE', #32, .T. ) ;
#180 = AXIS2_PLACEMENT_3D ( 'NONE', #205, #168, #167 ) ;
#181 = CIRCLE ( 'NONE', #246, 11.00000000000000000 ) ;
#182 = CARTESIAN_POINT ( 'NONE',  ( 0.0000000000000000000, 2.719377878379547500, 0.0000000000000000000 ) ) ;
#183 = DIRECTION ( 'NONE',  ( 1.000000000000000000, 0.0000000000000000000, -1.224646799147353200E-016 ) ) ;
#184 = DIRECTION ( 'NONE',  ( 1.224646799147353200E-016, -0.0000000000000000000, 1.000000000000000000 ) ) ;
#185 = DIRECTION ( 'NONE',  ( 0.0000000000000000000, 0.0000000000000000000, -1.000000000000000000 ) ) ;
#186 = DIRECTION ( 'NONE',  ( -0.0000000000000000000, -1.000000000000000000, -0.0000000000000000000 ) ) ;
#187 = CARTESIAN_POINT ( 'NONE',  ( 0.0000000000000000000, 5.299999999999998900, 0.0000000000000000000 ) ) ;
#188 = DIRECTION ( 'NONE',  ( 0.0000000000000000000, 0.0000000000000000000, 1.000000000000000000 ) ) ;
#189 = CYLINDRICAL_SURFACE ( 'NONE', #157, 11.00000000000000000 ) ;
#190 = CIRCLE ( 'NONE', #241, 11.00000000000000000 ) ;
#191 = DIRECTION ( 'NONE',  ( -0.0000000000000000000, -1.000000000000000000, -0.0000000000000000000 ) ) ;
#192 = CARTESIAN_POINT ( 'NONE',  ( 1.347111479062088400E-015, 2.719377878379547500, 11.00000000000000000 ) ) ;
#193 = CIRCLE ( 'NONE', #215, 6.000000000000000000 ) ;
#194 = DIRECTION ( 'NONE',  ( 0.0000000000000000000, 0.0000000000000000000, -1.000000000000000000 ) ) ;
#195 = DIRECTION ( 'NONE',  ( -0.0000000000000000000, -1.000000000000000000, -0.0000000000000000000 ) ) ;
#196 = CIRCLE ( 'NONE', #121, 11.00000000000000000 ) ;
#197 = ADVANCED_BREP_SHAPE_REPRESENTATION ( 'WDS-401-203M', ( #109, #203 ), #198 ) ;
#198 =( GEOMETRIC_REPRESENTATION_CONTEXT ( 3 ) GLOBAL_UNCERTAINTY_ASSIGNED_CONTEXT ( ( #199 ) ) GLOBAL_UNIT_ASSIGNED_CONTEXT ( ( #202, #201, #200 ) ) REPRESENTATION_CONTEXT ( 'NONE', 'WORKASPACE' ) );
#199 = UNCERTAINTY_MEASURE_WITH_UNIT (LENGTH_MEASURE( 1.000000000000000100E-005 ), #202, 'distance_accuracy_value', 'NONE');
#200 =( NAMED_UNIT ( * ) SI_UNIT ( $, .STERADIAN. ) SOLID_ANGLE_UNIT ( ) );
#201 =( NAMED_UNIT ( * ) PLANE_ANGLE_UNIT ( ) SI_UNIT ( $, .RADIAN. ) );
#202 =( LENGTH_UNIT ( ) NAMED_UNIT ( * ) SI_UNIT ( .MILLI., .METRE. ) );
#203 = AXIS2_PLACEMENT_3D ( 'NONE', #250, #249, #248 ) ;
#204 =( GEOMETRIC_REPRESENTATION_CONTEXT ( 3 ) GLOBAL_UNCERTAINTY_ASSIGNED_CONTEXT ( ( #252 ) ) GLOBAL_UNIT_ASSIGNED_CONTEXT ( ( #255, #254, #253 ) ) REPRESENTATION_CONTEXT ( 'NONE', 'WORKASPACE' ) );
#205 = CARTESIAN_POINT ( 'NONE',  ( 0.0000000000000000000, 2.719377878379547500, 0.0000000000000000000 ) ) ;
#206 = AXIS2_PLACEMENT_3D ( 'NONE', #130, #184, #183 ) ;
#207 = CARTESIAN_POINT ( 'NONE',  ( -11.00000000000000500, 2.719377878379546100, 1.347111479062089000E-015 ) ) ;
#208 = SPHERICAL_SURFACE ( 'NONE', #222, 25.00000000000000000 ) ;
#209 = DIRECTION ( 'NONE',  ( 0.0000000000000000000, 0.0000000000000000000, -1.000000000000000000 ) ) ;
#210 = DIRECTION ( 'NONE',  ( -0.0000000000000000000, -1.000000000000000000, -0.0000000000000000000 ) ) ;
#211 = CARTESIAN_POINT ( 'NONE',  ( 0.0000000000000000000, 2.719377878379547500, 0.0000000000000000000 ) ) ;
#212 = AXIS2_PLACEMENT_3D ( 'NONE', #211, #210, #209 ) ;
#213 = AXIS2_PLACEMENT_3D ( 'NONE', #155, #154, #153 ) ;
#214 = DIRECTION ( 'NONE',  ( -0.0000000000000000000, -1.000000000000000000, -0.0000000000000000000 ) ) ;
#215 = AXIS2_PLACEMENT_3D ( 'NONE', #218, #240, #239 ) ;
#216 = CYLINDRICAL_SURFACE ( 'NONE', #213, 6.000000000000000000 ) ;
#217 = DIRECTION ( 'NONE',  ( 0.0000000000000000000, 0.0000000000000000000, -1.000000000000000000 ) ) ;
#218 = CARTESIAN_POINT ( 'NONE',  ( 0.0000000000000000000, 5.299999999999998000, 0.0000000000000000000 ) ) ;
#219 = VECTOR ( 'NONE', #247, 1000.000000000000000 ) ;
#220 = CARTESIAN_POINT ( 'NONE',  ( 0.0000000000000000000, 0.0000000000000000000, -6.000000000000000000 ) ) ;
#221 = LINE ( 'NONE', #220, #219 ) ;
#222 = AXIS2_PLACEMENT_3D ( 'NONE', #238, #188, #132 ) ;
#223 = FACE_OUTER_BOUND ( 'NONE', #87, .T. ) ;
#224 = DIRECTION ( 'NONE',  ( -0.0000000000000000000, -1.000000000000000000, -0.0000000000000000000 ) ) ;
#225 = VECTOR ( 'NONE', #224, 1000.000000000000000 ) ;
#226 = CARTESIAN_POINT ( 'NONE',  ( 0.0000000000000000000, 0.0000000000000000000, -11.00000000000000000 ) ) ;
#227 = CARTESIAN_POINT ( 'NONE',  ( 0.0000000000000000000, 0.8999999999999989100, -6.000000000000000000 ) ) ;
#228 = FACE_OUTER_BOUND ( 'NONE', #98, .T. ) ;
#229 = DIRECTION ( 'NONE',  ( 0.0000000000000000000, 0.0000000000000000000, 1.000000000000000000 ) ) ;
#230 = CARTESIAN_POINT ( 'NONE',  ( 0.0000000000000000000, 25.16932219902319500, 0.0000000000000000000 ) ) ;
#231 = FILL_AREA_STYLE_COLOUR ( '', #272 ) ;
#232 = DIRECTION ( 'NONE',  ( 0.0000000000000000000, -0.0000000000000000000, 1.000000000000000000 ) ) ;
#233 = DIRECTION ( 'NONE',  ( 0.0000000000000000000, 1.000000000000000000, 0.0000000000000000000 ) ) ;
#234 = CARTESIAN_POINT ( 'NONE',  ( 6.000000000000000000, 5.299999999999998900, 0.0000000000000000000 ) ) ;
#235 = SPHERICAL_SURFACE ( 'NONE', #114, 25.00000000000000000 ) ;
#236 = AXIS2_PLACEMENT_3D ( 'NONE', #148, #147, #146 ) ;
#237 = FILL_AREA_STYLE_COLOUR ( '', #141 ) ;
#238 = CARTESIAN_POINT ( 'NONE',  ( 0.0000000000000000000, 25.16932219902319500, 0.0000000000000000000 ) ) ;
#239 = DIRECTION ( 'NONE',  ( 0.0000000000000000000, 0.0000000000000000000, -1.000000000000000000 ) ) ;
#240 = DIRECTION ( 'NONE',  ( -0.0000000000000000000, -1.000000000000000000, -0.0000000000000000000 ) ) ;
#241 = AXIS2_PLACEMENT_3D ( 'NONE', #187, #186, #185 ) ;
#242 = FACE_OUTER_BOUND ( 'NONE', #73, .T. ) ;
#243 = LINE ( 'NONE', #226, #225 ) ;
#244 = AXIS2_PLACEMENT_3D ( 'NONE', #182, #177, #176 ) ;
#245 = CIRCLE ( 'NONE', #244, 11.00000000000000000 ) ;
#246 = AXIS2_PLACEMENT_3D ( 'NONE', #174, #173, #172 ) ;
#247 = DIRECTION ( 'NONE',  ( -0.0000000000000000000, -1.000000000000000000, -0.0000000000000000000 ) ) ;
#248 = DIRECTION ( 'NONE',  ( 1.000000000000000000, 0.0000000000000000000, 0.0000000000000000000 ) ) ;
#249 = DIRECTION ( 'NONE',  ( 0.0000000000000000000, 0.0000000000000000000, 1.000000000000000000 ) ) ;
#250 = CARTESIAN_POINT ( 'NONE',  ( 0.0000000000000000000, 0.0000000000000000000, 0.0000000000000000000 ) ) ;
#251 =( GEOMETRIC_REPRESENTATION_CONTEXT ( 3 ) GLOBAL_UNCERTAINTY_ASSIGNED_CONTEXT ( ( #261 ) ) GLOBAL_UNIT_ASSIGNED_CONTEXT ( ( #264, #263, #262 ) ) REPRESENTATION_CONTEXT ( 'NONE', 'WORKASPACE' ) );
#252 = UNCERTAINTY_MEASURE_WITH_UNIT (LENGTH_MEASURE( 1.000000000000000100E-005 ), #255, 'distance_accuracy_value', 'NONE');
#253 =( NAMED_UNIT ( * ) SI_UNIT ( $, .STERADIAN. ) SOLID_ANGLE_UNIT ( ) );
#254 =( NAMED_UNIT ( * ) PLANE_ANGLE_UNIT ( ) SI_UNIT ( $, .RADIAN. ) );
#255 =( LENGTH_UNIT ( ) NAMED_UNIT ( * ) SI_UNIT ( .MILLI., .METRE. ) );
#256 = MECHANICAL_DESIGN_GEOMETRIC_PRESENTATION_REPRESENTATION (  '', ( #258 ), #204 ) ;
#257 = PRESENTATION_LAYER_ASSIGNMENT (  '', '', ( #258 ) ) ;
#258 = STYLED_ITEM ( 'NONE', ( #259 ), #109 ) ;
#259 = PRESENTATION_STYLE_ASSIGNMENT (( #260 ) ) ;
#260 = SURFACE_STYLE_USAGE ( .BOTH. , #138 ) ;
#261 = UNCERTAINTY_MEASURE_WITH_UNIT (LENGTH_MEASURE( 1.000000000000000100E-005 ), #264, 'distance_accuracy_value', 'NONE');
#262 =( NAMED_UNIT ( * ) SI_UNIT ( $, .STERADIAN. ) SOLID_ANGLE_UNIT ( ) );
#263 =( NAMED_UNIT ( * ) PLANE_ANGLE_UNIT ( ) SI_UNIT ( $, .RADIAN. ) );
#264 =( LENGTH_UNIT ( ) NAMED_UNIT ( * ) SI_UNIT ( .MILLI., .METRE. ) );
#265 = MECHANICAL_DESIGN_GEOMETRIC_PRESENTATION_REPRESENTATION (  '', ( #267 ), #251 ) ;
#266 = PRESENTATION_LAYER_ASSIGNMENT (  '', '', ( #267 ) ) ;
#267 = STYLED_ITEM ( 'NONE', ( #268 ), #197 ) ;
#268 = PRESENTATION_STYLE_ASSIGNMENT (( #269 ) ) ;
#269 = SURFACE_STYLE_USAGE ( .BOTH. , #270 ) ;
#270 = SURFACE_SIDE_STYLE ('',( #271 ) ) ;
#271 = SURFACE_STYLE_FILL_AREA ( #145 ) ;
#272 = COLOUR_RGB ( '',0.7529411764705882200, 0.7529411764705882200, 0.7529411764705882200 ) ;
#273 = PRODUCT ( 'WDS-401-203M', 'WDS-401-203M', '', ( #274 ) ) ;
#274 = PRODUCT_CONTEXT ( 'NONE', #276, 'mechanical' ) ;
#275 = APPLICATION_PROTOCOL_DEFINITION ( 'draft international standard', 'automotive_design', 1998, #276 ) ;
#276 = APPLICATION_CONTEXT ( 'automotive_design' ) ;
ENDSEC;
END-ISO-10303-21;
