ISO-10303-21;
HEADER;
FILE_DESCRIPTION (( 'STEP AP203' ),
    '1' );
FILE_NAME ('WDS-401-201M.step',
    '2012-03-30T18:00:38',
    ( 'SysAdmin' ),
    ( 'SolidWorks' ),
    'SwSTEP 2.0',
    'SolidWorks 2012',
    '' );
FILE_SCHEMA (( 'CONFIG_CONTROL_DESIGN' ));
ENDSEC;

DATA;
#1 = DATE_TIME_ROLE ( 'creation_date' ) ;
#2 = EDGE_CURVE ( 'NONE', #100, #68, #55, .T. ) ;
#3 = EDGE_CURVE ( 'NONE', #4, #73, #117, .T. ) ;
#4 = VERTEX_POINT ( 'NONE', #51 ) ;
#5 = ORIENTED_EDGE ( 'NONE', *, *, #8, .F. ) ;
#6 = ORIENTED_EDGE ( 'NONE', *, *, #3, .F. ) ;
#7 = ORIENTED_EDGE ( 'NONE', *, *, #80, .T. ) ;
#8 = EDGE_CURVE ( 'NONE', #99, #4, #57, .T. ) ;
#9 = VERTEX_POINT ( 'NONE', #119 ) ;
#10 = ORIENTED_EDGE ( 'NONE', *, *, #11, .F. ) ;
#11 = EDGE_CURVE ( 'NONE', #92, #9, #56, .T. ) ;
#12 = EDGE_CURVE ( 'NONE', #74, #18, #125, .T. ) ;
#13 = VERTEX_POINT ( 'NONE', #118 ) ;
#14 = ADVANCED_FACE ( 'NONE', ( #31 ), #241, .F. ) ;
#15 = ORIENTED_EDGE ( 'NONE', *, *, #16, .T. ) ;
#16 = EDGE_CURVE ( 'NONE', #92, #13, #253, .T. ) ;
#17 = EDGE_LOOP ( 'NONE', ( #81, #87 ) ) ;
#18 = VERTEX_POINT ( 'NONE', #165 ) ;
#19 = ORIENTED_EDGE ( 'NONE', *, *, #80, .F. ) ;
#20 = EDGE_LOOP ( 'NONE', ( #98, #83, #7, #63, #66 ) ) ;
#21 = ORIENTED_EDGE ( 'NONE', *, *, #76, .T. ) ;
#22 = ORIENTED_EDGE ( 'NONE', *, *, #95, .F. ) ;
#23 = EDGE_LOOP ( 'NONE', ( #72, #75, #78, #77, #94, #97 ) ) ;
#24 = DIRECTION ( 'NONE',  ( 0.0000000000000000000, 0.0000000000000000000, -1.000000000000000000 ) ) ;
#25 = DIRECTION ( 'NONE',  ( -0.0000000000000000000, -1.000000000000000000, -0.0000000000000000000 ) ) ;
#26 = CARTESIAN_POINT ( 'NONE',  ( 0.0000000000000000000, 3.699999999999999300, 0.0000000000000000000 ) ) ;
#27 = AXIS2_PLACEMENT_3D ( 'NONE', #26, #25, #24 ) ;
#28 = APPROVAL ( #29, 'UNSPECIFIED' ) ;
#29 = APPROVAL_STATUS ( 'not_yet_approved' ) ;
#30 = PERSON_AND_ORGANIZATION ( #161, #192 ) ;
#31 = FACE_OUTER_BOUND ( 'NONE', #96, .T. ) ;
#32 = PRODUCT_DEFINITION_FORMATION_WITH_SPECIFIED_SOURCE ( 'ANY', '', #162, .NOT_KNOWN. ) ;
#33 = EDGE_CURVE ( 'NONE', #82, #4, #151, .T. ) ;
#34 = EDGE_LOOP ( 'NONE', ( #38, #42, #40, #110, #37, #41 ) ) ;
#35 = ORIENTED_EDGE ( 'NONE', *, *, #33, .F. ) ;
#36 = ORIENTED_EDGE ( 'NONE', *, *, #103, .T. ) ;
#37 = ORIENTED_EDGE ( 'NONE', *, *, #86, .F. ) ;
#38 = ORIENTED_EDGE ( 'NONE', *, *, #62, .F. ) ;
#39 = ADVANCED_FACE ( 'NONE', ( #144 ), #164, .T. ) ;
#40 = ORIENTED_EDGE ( 'NONE', *, *, #3, .T. ) ;
#41 = ORIENTED_EDGE ( 'NONE', *, *, #12, .F. ) ;
#42 = ORIENTED_EDGE ( 'NONE', *, *, #33, .T. ) ;
#43 = DIRECTION ( 'NONE',  ( -0.0000000000000000000, -1.000000000000000000, -0.0000000000000000000 ) ) ;
#44 = VECTOR ( 'NONE', #43, 1000.000000000000000 ) ;
#45 = CARTESIAN_POINT ( 'NONE',  ( 0.0000000000000000000, 0.0000000000000000000, -8.000000000000000000 ) ) ;
#46 = CC_DESIGN_DATE_AND_TIME_ASSIGNMENT ( #229, #1, ( #185 ) ) ;
#47 = DIRECTION ( 'NONE',  ( 0.0000000000000000000, 0.0000000000000000000, -1.000000000000000000 ) ) ;
#48 = DIRECTION ( 'NONE',  ( -0.0000000000000000000, -1.000000000000000000, -0.0000000000000000000 ) ) ;
#49 = CARTESIAN_POINT ( 'NONE',  ( 0.0000000000000000000, 2.135526924278649700, 0.0000000000000000000 ) ) ;
#50 = AXIS2_PLACEMENT_3D ( 'NONE', #49, #48, #47 ) ;
#51 = CARTESIAN_POINT ( 'NONE',  ( 0.0000000000000000000, 2.135526924278649700, -8.000000000000000000 ) ) ;
#52 = DIRECTION ( 'NONE',  ( -0.0000000000000000000, -1.000000000000000000, -0.0000000000000000000 ) ) ;
#53 = VECTOR ( 'NONE', #52, 1000.000000000000000 ) ;
#54 = CARTESIAN_POINT ( 'NONE',  ( 9.797174393178825700E-016, 0.0000000000000000000, 8.000000000000000000 ) ) ;
#55 = LINE ( 'NONE', #54, #53 ) ;
#56 = CIRCLE ( 'NONE', #27, 4.000000000000000000 ) ;
#57 = LINE ( 'NONE', #45, #44 ) ;
#58 = PERSON_AND_ORGANIZATION_ROLE ( 'design_supplier' ) ;
#59 = CC_DESIGN_APPROVAL ( #28, ( #32 ) ) ;
#60 = APPROVAL_DATE_TIME ( #61, #28 ) ;
#61 = DATE_AND_TIME ( #112, #113 ) ;
#62 = EDGE_CURVE ( 'NONE', #82, #74, #145, .T. ) ;
#63 = ORIENTED_EDGE ( 'NONE', *, *, #86, .T. ) ;
#64 = ORIENTED_EDGE ( 'NONE', *, *, #103, .F. ) ;
#65 = EDGE_LOOP ( 'NONE', ( #104, #64 ) ) ;
#66 = ORIENTED_EDGE ( 'NONE', *, *, #91, .T. ) ;
#67 = EDGE_CURVE ( 'NONE', #68, #82, #169, .T. ) ;
#68 = VERTEX_POINT ( 'NONE', #194 ) ;
#69 = VERTEX_POINT ( 'NONE', #152 ) ;
#70 = ADVANCED_FACE ( 'NONE', ( #174 ), #279, .T. ) ;
#71 = EDGE_LOOP ( 'NONE', ( #90, #89, #22, #6, #5 ) ) ;
#72 = ORIENTED_EDGE ( 'NONE', *, *, #67, .T. ) ;
#73 = VERTEX_POINT ( 'NONE', #175 ) ;
#74 = VERTEX_POINT ( 'NONE', #172 ) ;
#75 = ORIENTED_EDGE ( 'NONE', *, *, #62, .T. ) ;
#76 = EDGE_CURVE ( 'NONE', #13, #74, #173, .T. ) ;
#77 = ORIENTED_EDGE ( 'NONE', *, *, #91, .F. ) ;
#78 = ORIENTED_EDGE ( 'NONE', *, *, #76, .F. ) ;
#79 = ORIENTED_EDGE ( 'NONE', *, *, #12, .T. ) ;
#80 = EDGE_CURVE ( 'NONE', #9, #18, #159, .T. ) ;
#81 = ORIENTED_EDGE ( 'NONE', *, *, #85, .T. ) ;
#82 = VERTEX_POINT ( 'NONE', #155 ) ;
#83 = ORIENTED_EDGE ( 'NONE', *, *, #85, .F. ) ;
#84 = ADVANCED_FACE ( 'NONE', ( #160 ), #171, .F. ) ;
#85 = EDGE_CURVE ( 'NONE', #9, #92, #221, .T. ) ;
#86 = EDGE_CURVE ( 'NONE', #18, #69, #223, .T. ) ;
#87 = ORIENTED_EDGE ( 'NONE', *, *, #11, .T. ) ;
#88 = EDGE_CURVE ( 'NONE', #99, #100, #228, .T. ) ;
#89 = ORIENTED_EDGE ( 'NONE', *, *, #2, .T. ) ;
#90 = ORIENTED_EDGE ( 'NONE', *, *, #88, .T. ) ;
#91 = EDGE_CURVE ( 'NONE', #69, #13, #276, .T. ) ;
#92 = VERTEX_POINT ( 'NONE', #222 ) ;
#93 = EDGE_CURVE ( 'NONE', #73, #69, #266, .T. ) ;
#94 = ORIENTED_EDGE ( 'NONE', *, *, #93, .F. ) ;
#95 = EDGE_CURVE ( 'NONE', #73, #68, #260, .T. ) ;
#96 = EDGE_LOOP ( 'NONE', ( #10, #15, #21, #79, #19 ) ) ;
#97 = ORIENTED_EDGE ( 'NONE', *, *, #95, .T. ) ;
#98 = ORIENTED_EDGE ( 'NONE', *, *, #16, .F. ) ;
#99 = VERTEX_POINT ( 'NONE', #277 ) ;
#100 = VERTEX_POINT ( 'NONE', #262 ) ;
#101 = ADVANCED_FACE ( 'NONE', ( #217 ), #258, .T. ) ;
#102 = ADVANCED_FACE ( 'NONE', ( #269, #205 ), #201, .T. ) ;
#103 = EDGE_CURVE ( 'NONE', #100, #99, #196, .T. ) ;
#104 = ORIENTED_EDGE ( 'NONE', *, *, #88, .F. ) ;
#105 = ORIENTED_EDGE ( 'NONE', *, *, #8, .T. ) ;
#106 = ADVANCED_FACE ( 'NONE', ( #206 ), #207, .T. ) ;
#107 = CLOSED_SHELL ( 'NONE', ( #70, #101, #14, #84, #102, #106, #39 ) ) ;
#108 = ORIENTED_EDGE ( 'NONE', *, *, #2, .F. ) ;
#109 = ORIENTED_EDGE ( 'NONE', *, *, #67, .F. ) ;
#110 = ORIENTED_EDGE ( 'NONE', *, *, #93, .T. ) ;
#111 = EDGE_LOOP ( 'NONE', ( #108, #36, #105, #35, #109 ) ) ;
#112 = CALENDAR_DATE ( 2012, 30, 3 ) ;
#113 = LOCAL_TIME ( 14, 0, 38.00000000000000000, #114 ) ;
#114 = COORDINATED_UNIVERSAL_TIME_OFFSET ( 5, 0, .BEHIND. ) ;
#115 = APPROVAL_PERSON_ORGANIZATION ( #30, #28, #116 ) ;
#116 = APPROVAL_ROLE ( '' ) ;
#117 = CIRCLE ( 'NONE', #50, 8.000000000000000000 ) ;
#118 = CARTESIAN_POINT ( 'NONE',  ( 4.898587196589412800E-016, 0.5000000000000000000, 4.000000000000000000 ) ) ;
#119 = CARTESIAN_POINT ( 'NONE',  ( 0.0000000000000000000, 3.699999999999999300, -4.000000000000000000 ) ) ;
#120 = MANIFOLD_SOLID_BREP ( 'Cut-Revolve2', #107 ) ;
#121 = DIRECTION ( 'NONE',  ( 0.0000000000000000000, 0.0000000000000000000, -1.000000000000000000 ) ) ;
#122 = CC_DESIGN_PERSON_AND_ORGANIZATION_ASSIGNMENT ( #129, #126, ( #32 ) ) ;
#123 = DIRECTION ( 'NONE',  ( -0.0000000000000000000, -1.000000000000000000, -0.0000000000000000000 ) ) ;
#124 = CARTESIAN_POINT ( 'NONE',  ( 0.0000000000000000000, 0.5000000000000000000, 0.0000000000000000000 ) ) ;
#125 = CIRCLE ( 'NONE', #127, 4.000000000000000000 ) ;
#126 = PERSON_AND_ORGANIZATION_ROLE ( 'creator' ) ;
#127 = AXIS2_PLACEMENT_3D ( 'NONE', #124, #123, #121 ) ;
#128 = PERSON_AND_ORGANIZATION ( #161, #192 ) ;
#129 = PERSON_AND_ORGANIZATION ( #161, #192 ) ;
#130 = AXIS2_PLACEMENT_3D ( 'NONE', #133, #148, #147 ) ;
#131 = AXIS2_PLACEMENT_3D ( 'NONE', #193, #178, #177 ) ;
#132 = DIRECTION ( 'NONE',  ( 1.000000000000000000, 0.0000000000000000000, 0.0000000000000000000 ) ) ;
#133 = CARTESIAN_POINT ( 'NONE',  ( 0.0000000000000000000, 2.135526924278649700, 0.0000000000000000000 ) ) ;
#134 = AXIS2_PLACEMENT_3D ( 'NONE', #282, #281, #280 ) ;
#135 = UNCERTAINTY_MEASURE_WITH_UNIT (LENGTH_MEASURE( 1.000000000000000100E-005 ), #138, 'distance_accuracy_value', 'NONE');
#136 =( NAMED_UNIT ( * ) SI_UNIT ( $, .STERADIAN. ) SOLID_ANGLE_UNIT ( ) );
#137 =( NAMED_UNIT ( * ) PLANE_ANGLE_UNIT ( ) SI_UNIT ( $, .RADIAN. ) );
#138 =( LENGTH_UNIT ( ) NAMED_UNIT ( * ) SI_UNIT ( .MILLI., .METRE. ) );
#139 = DIRECTION ( 'NONE',  ( 0.0000000000000000000, 0.0000000000000000000, -1.000000000000000000 ) ) ;
#140 = DIRECTION ( 'NONE',  ( -0.0000000000000000000, -1.000000000000000000, -0.0000000000000000000 ) ) ;
#141 = CARTESIAN_POINT ( 'NONE',  ( 0.0000000000000000000, 0.0000000000000000000, 0.0000000000000000000 ) ) ;
#142 = DIRECTION ( 'NONE',  ( 0.0000000000000000000, 0.0000000000000000000, -1.000000000000000000 ) ) ;
#143 = DIRECTION ( 'NONE',  ( -0.0000000000000000000, -1.000000000000000000, -0.0000000000000000000 ) ) ;
#144 = FACE_OUTER_BOUND ( 'NONE', #34, .T. ) ;
#145 = CIRCLE ( 'NONE', #134, 16.00000000000000000 ) ;
#146 = CARTESIAN_POINT ( 'NONE',  ( 0.0000000000000000000, 15.99193338482966800, 0.0000000000000000000 ) ) ;
#147 = DIRECTION ( 'NONE',  ( 0.0000000000000000000, 0.0000000000000000000, -1.000000000000000000 ) ) ;
#148 = DIRECTION ( 'NONE',  ( -0.0000000000000000000, -1.000000000000000000, -0.0000000000000000000 ) ) ;
#149 = DIRECTION ( 'NONE',  ( 1.000000000000000000, 0.0000000000000000000, 0.0000000000000000000 ) ) ;
#150 = DIRECTION ( 'NONE',  ( 0.0000000000000000000, 0.0000000000000000000, 1.000000000000000000 ) ) ;
#151 = CIRCLE ( 'NONE', #130, 8.000000000000000000 ) ;
#152 = CARTESIAN_POINT ( 'NONE',  ( 4.000000000000000000, 0.5000000000000000000, 0.0000000000000000000 ) ) ;
#153 = APPLICATION_PROTOCOL_DEFINITION ( 'international standard', 'config_control_design', 1994, #247 ) ;
#154 = AXIS2_PLACEMENT_3D ( 'NONE', #226, #225, #224 ) ;
#155 = CARTESIAN_POINT ( 'NONE',  ( -7.999999999999998200, 2.135526924278649200, 9.797174393178823700E-016 ) ) ;
#156 = DIRECTION ( 'NONE',  ( -0.0000000000000000000, -1.000000000000000000, -0.0000000000000000000 ) ) ;
#157 = VECTOR ( 'NONE', #156, 1000.000000000000000 ) ;
#158 = CARTESIAN_POINT ( 'NONE',  ( 0.0000000000000000000, 0.0000000000000000000, -4.000000000000000000 ) ) ;
#159 = LINE ( 'NONE', #158, #157 ) ;
#160 = FACE_OUTER_BOUND ( 'NONE', #20, .T. ) ;
#161 = PERSON ( 'UNSPECIFIED', 'UNSPECIFIED', 'UNSPECIFIED', ('UNSPECIFIED'), ('UNSPECIFIED'), ('UNSPECIFIED') ) ;
#162 = PRODUCT ( 'WDS-401-201M', 'WDS-401-201M', '', ( #163 ) ) ;
#163 = MECHANICAL_CONTEXT ( 'NONE', #247, 'mechanical' ) ;
#164 = SPHERICAL_SURFACE ( 'NONE', #176, 16.00000000000000000 ) ;
#165 = CARTESIAN_POINT ( 'NONE',  ( 0.0000000000000000000, 0.5000000000000000000, -4.000000000000000000 ) ) ;
#166 = DIRECTION ( 'NONE',  ( 0.0000000000000000000, 0.0000000000000000000, -1.000000000000000000 ) ) ;
#167 = DIRECTION ( 'NONE',  ( -0.0000000000000000000, -1.000000000000000000, -0.0000000000000000000 ) ) ;
#168 = CARTESIAN_POINT ( 'NONE',  ( 0.0000000000000000000, 2.135526924278649700, 0.0000000000000000000 ) ) ;
#169 = CIRCLE ( 'NONE', #278, 8.000000000000000000 ) ;
#170 = AXIS2_PLACEMENT_3D ( 'NONE', #242, #284, #132 ) ;
#171 = CYLINDRICAL_SURFACE ( 'NONE', #154, 4.000000000000000000 ) ;
#172 = CARTESIAN_POINT ( 'NONE',  ( -4.000000000000000000, 0.5000000000000000000, 7.347880794884118800E-016 ) ) ;
#173 = CIRCLE ( 'NONE', #257, 4.000000000000000000 ) ;
#174 = FACE_OUTER_BOUND ( 'NONE', #23, .T. ) ;
#175 = CARTESIAN_POINT ( 'NONE',  ( 7.999999999999998200, 2.135526924278649200, 0.0000000000000000000 ) ) ;
#176 = AXIS2_PLACEMENT_3D ( 'NONE', #146, #150, #149 ) ;
#177 = DIRECTION ( 'NONE',  ( 0.0000000000000000000, 0.0000000000000000000, -1.000000000000000000 ) ) ;
#178 = DIRECTION ( 'NONE',  ( -0.0000000000000000000, -1.000000000000000000, -0.0000000000000000000 ) ) ;
#179 = COORDINATED_UNIVERSAL_TIME_OFFSET ( 5, 0, .BEHIND. ) ;
#180 = APPROVAL_PERSON_ORGANIZATION ( #184, #182, #181 ) ;
#181 = APPROVAL_ROLE ( '' ) ;
#182 = APPROVAL ( #183, 'UNSPECIFIED' ) ;
#183 = APPROVAL_STATUS ( 'not_yet_approved' ) ;
#184 = PERSON_AND_ORGANIZATION ( #161, #192 ) ;
#185 = PRODUCT_DEFINITION ( 'UNKNOWN', '', #32, #186 ) ;
#186 = DESIGN_CONTEXT ( 'detailed design', #188, 'design' ) ;
#187 = APPLICATION_PROTOCOL_DEFINITION ( 'international standard', 'config_control_design', 1994, #188 ) ;
#188 = APPLICATION_CONTEXT ( 'configuration controlled 3d designs of mechanical parts and assemblies' ) ;
#189 = CC_DESIGN_PERSON_AND_ORGANIZATION_ASSIGNMENT ( #191, #190, ( #162 ) ) ;
#190 = PERSON_AND_ORGANIZATION_ROLE ( 'design_owner' ) ;
#191 = PERSON_AND_ORGANIZATION ( #161, #192 ) ;
#192 = ORGANIZATION ( 'UNSPECIFIED', 'UNSPECIFIED', '' ) ;
#193 = CARTESIAN_POINT ( 'NONE',  ( 0.0000000000000000000, 0.0000000000000000000, 0.0000000000000000000 ) ) ;
#194 = CARTESIAN_POINT ( 'NONE',  ( 9.797174393178825700E-016, 2.135526924278649700, 8.000000000000000000 ) ) ;
#195 = CARTESIAN_POINT ( 'NONE',  ( 0.0000000000000000000, 3.699999999999999700, 0.0000000000000000000 ) ) ;
#196 = CIRCLE ( 'NONE', #203, 8.000000000000000000 ) ;
#197 = DIRECTION ( 'NONE',  ( 0.0000000000000000000, -0.0000000000000000000, 1.000000000000000000 ) ) ;
#198 = DIRECTION ( 'NONE',  ( 0.0000000000000000000, 1.000000000000000000, 0.0000000000000000000 ) ) ;
#199 = CARTESIAN_POINT ( 'NONE',  ( 4.000000000000000000, 3.699999999999999300, 0.0000000000000000000 ) ) ;
#200 = AXIS2_PLACEMENT_3D ( 'NONE', #199, #198, #197 ) ;
#201 = PLANE ( 'NONE',  #200 ) ;
#202 = DIRECTION ( 'NONE',  ( 0.0000000000000000000, 0.0000000000000000000, -1.000000000000000000 ) ) ;
#203 = AXIS2_PLACEMENT_3D ( 'NONE', #195, #143, #142 ) ;
#204 = AXIS2_PLACEMENT_3D ( 'NONE', #141, #140, #139 ) ;
#205 = FACE_OUTER_BOUND ( 'NONE', #65, .T. ) ;
#206 = FACE_OUTER_BOUND ( 'NONE', #111, .T. ) ;
#207 = CYLINDRICAL_SURFACE ( 'NONE', #204, 8.000000000000000000 ) ;
#208 = DIRECTION ( 'NONE',  ( 0.0000000000000000000, 0.0000000000000000000, -1.000000000000000000 ) ) ;
#209 = DIRECTION ( 'NONE',  ( -0.0000000000000000000, -1.000000000000000000, -0.0000000000000000000 ) ) ;
#210 = CARTESIAN_POINT ( 'NONE',  ( 0.0000000000000000000, 2.135526924278649700, 0.0000000000000000000 ) ) ;
#211 = AXIS2_PLACEMENT_3D ( 'NONE', #265, #264, #263 ) ;
#212 = DIRECTION ( 'NONE',  ( 0.0000000000000000000, 0.0000000000000000000, -1.000000000000000000 ) ) ;
#213 = DIRECTION ( 'NONE',  ( -0.0000000000000000000, -1.000000000000000000, -0.0000000000000000000 ) ) ;
#214 = CARTESIAN_POINT ( 'NONE',  ( 0.0000000000000000000, 0.5000000000000000000, 0.0000000000000000000 ) ) ;
#215 = AXIS2_PLACEMENT_3D ( 'NONE', #272, #271, #270 ) ;
#216 = AXIS2_PLACEMENT_3D ( 'NONE', #275, #274, #273 ) ;
#217 = FACE_OUTER_BOUND ( 'NONE', #71, .T. ) ;
#218 = DIRECTION ( 'NONE',  ( 0.0000000000000000000, 0.0000000000000000000, -1.000000000000000000 ) ) ;
#219 = DIRECTION ( 'NONE',  ( -0.0000000000000000000, -1.000000000000000000, -0.0000000000000000000 ) ) ;
#220 = CARTESIAN_POINT ( 'NONE',  ( 0.0000000000000000000, 3.699999999999999300, 0.0000000000000000000 ) ) ;
#221 = CIRCLE ( 'NONE', #283, 4.000000000000000000 ) ;
#222 = CARTESIAN_POINT ( 'NONE',  ( 4.898587196589412800E-016, 3.699999999999999300, 4.000000000000000000 ) ) ;
#223 = CIRCLE ( 'NONE', #227, 4.000000000000000000 ) ;
#224 = DIRECTION ( 'NONE',  ( 0.0000000000000000000, 0.0000000000000000000, -1.000000000000000000 ) ) ;
#225 = DIRECTION ( 'NONE',  ( -0.0000000000000000000, -1.000000000000000000, -0.0000000000000000000 ) ) ;
#226 = CARTESIAN_POINT ( 'NONE',  ( 0.0000000000000000000, 0.0000000000000000000, 0.0000000000000000000 ) ) ;
#227 = AXIS2_PLACEMENT_3D ( 'NONE', #214, #213, #212 ) ;
#228 = CIRCLE ( 'NONE', #216, 8.000000000000000000 ) ;
#229 = DATE_AND_TIME ( #230, #231 ) ;
#230 = CALENDAR_DATE ( 2012, 30, 3 ) ;
#231 = LOCAL_TIME ( 14, 0, 38.00000000000000000, #232 ) ;
#232 = COORDINATED_UNIVERSAL_TIME_OFFSET ( 5, 0, .BEHIND. ) ;
#233 = CC_DESIGN_PERSON_AND_ORGANIZATION_ASSIGNMENT ( #235, #234, ( #185 ) ) ;
#234 = PERSON_AND_ORGANIZATION_ROLE ( 'creator' ) ;
#235 = PERSON_AND_ORGANIZATION ( #161, #192 ) ;
#236 = CC_DESIGN_APPROVAL ( #182, ( #185 ) ) ;
#237 = APPROVAL_DATE_TIME ( #238, #182 ) ;
#238 = DATE_AND_TIME ( #239, #240 ) ;
#239 = CALENDAR_DATE ( 2012, 30, 3 ) ;
#240 = LOCAL_TIME ( 14, 0, 38.00000000000000000, #179 ) ;
#241 = CYLINDRICAL_SURFACE ( 'NONE', #131, 4.000000000000000000 ) ;
#242 = CARTESIAN_POINT ( 'NONE',  ( 0.0000000000000000000, 15.99193338482966800, 0.0000000000000000000 ) ) ;
#243 = CARTESIAN_POINT ( 'NONE',  ( 0.0000000000000000000, 0.0000000000000000000, 0.0000000000000000000 ) ) ;
#244 = DIRECTION ( 'NONE',  ( 1.000000000000000000, 0.0000000000000000000, 0.0000000000000000000 ) ) ;
#245 = DIRECTION ( 'NONE',  ( 0.0000000000000000000, 0.0000000000000000000, 1.000000000000000000 ) ) ;
#246 = AXIS2_PLACEMENT_3D ( 'NONE', #243, #245, #244 ) ;
#247 = APPLICATION_CONTEXT ( 'configuration controlled 3d designs of mechanical parts and assemblies' ) ;
#248 = ADVANCED_BREP_SHAPE_REPRESENTATION ( 'WDS-401-201M', ( #120, #246 ), #249 ) ;
#249 =( GEOMETRIC_REPRESENTATION_CONTEXT ( 3 ) GLOBAL_UNCERTAINTY_ASSIGNED_CONTEXT ( ( #135 ) ) GLOBAL_UNIT_ASSIGNED_CONTEXT ( ( #138, #137, #136 ) ) REPRESENTATION_CONTEXT ( 'NONE', 'WORKASPACE' ) );
#250 = DIRECTION ( 'NONE',  ( -0.0000000000000000000, -1.000000000000000000, -0.0000000000000000000 ) ) ;
#251 = VECTOR ( 'NONE', #250, 1000.000000000000000 ) ;
#252 = CARTESIAN_POINT ( 'NONE',  ( 4.898587196589412800E-016, 0.0000000000000000000, 4.000000000000000000 ) ) ;
#253 = LINE ( 'NONE', #252, #251 ) ;
#254 = DIRECTION ( 'NONE',  ( 0.0000000000000000000, 0.0000000000000000000, -1.000000000000000000 ) ) ;
#255 = DIRECTION ( 'NONE',  ( -0.0000000000000000000, -1.000000000000000000, -0.0000000000000000000 ) ) ;
#256 = CARTESIAN_POINT ( 'NONE',  ( 0.0000000000000000000, 0.5000000000000000000, 0.0000000000000000000 ) ) ;
#257 = AXIS2_PLACEMENT_3D ( 'NONE', #256, #255, #254 ) ;
#258 = CYLINDRICAL_SURFACE ( 'NONE', #261, 8.000000000000000000 ) ;
#259 = AXIS2_PLACEMENT_3D ( 'NONE', #210, #209, #208 ) ;
#260 = CIRCLE ( 'NONE', #259, 8.000000000000000000 ) ;
#261 = AXIS2_PLACEMENT_3D ( 'NONE', #268, #267, #202 ) ;
#262 = CARTESIAN_POINT ( 'NONE',  ( 9.797174393178825700E-016, 3.699999999999999700, 8.000000000000000000 ) ) ;
#263 = DIRECTION ( 'NONE',  ( -1.000000000000000000, 0.0000000000000000000, 0.0000000000000000000 ) ) ;
#264 = DIRECTION ( 'NONE',  ( 0.0000000000000000000, 0.0000000000000000000, -1.000000000000000000 ) ) ;
#265 = CARTESIAN_POINT ( 'NONE',  ( 0.0000000000000000000, 15.99193338482966800, 0.0000000000000000000 ) ) ;
#266 = CIRCLE ( 'NONE', #211, 16.00000000000000000 ) ;
#267 = DIRECTION ( 'NONE',  ( -0.0000000000000000000, -1.000000000000000000, -0.0000000000000000000 ) ) ;
#268 = CARTESIAN_POINT ( 'NONE',  ( 0.0000000000000000000, 0.0000000000000000000, 0.0000000000000000000 ) ) ;
#269 = FACE_BOUND ( 'NONE', #17, .T. ) ;
#270 = DIRECTION ( 'NONE',  ( 0.0000000000000000000, 0.0000000000000000000, -1.000000000000000000 ) ) ;
#271 = DIRECTION ( 'NONE',  ( -0.0000000000000000000, -1.000000000000000000, -0.0000000000000000000 ) ) ;
#272 = CARTESIAN_POINT ( 'NONE',  ( 0.0000000000000000000, 0.5000000000000000000, 0.0000000000000000000 ) ) ;
#273 = DIRECTION ( 'NONE',  ( 0.0000000000000000000, 0.0000000000000000000, -1.000000000000000000 ) ) ;
#274 = DIRECTION ( 'NONE',  ( -0.0000000000000000000, -1.000000000000000000, -0.0000000000000000000 ) ) ;
#275 = CARTESIAN_POINT ( 'NONE',  ( 0.0000000000000000000, 3.699999999999999700, 0.0000000000000000000 ) ) ;
#276 = CIRCLE ( 'NONE', #215, 4.000000000000000000 ) ;
#277 = CARTESIAN_POINT ( 'NONE',  ( 0.0000000000000000000, 3.699999999999999700, -8.000000000000000000 ) ) ;
#278 = AXIS2_PLACEMENT_3D ( 'NONE', #168, #167, #166 ) ;
#279 = SPHERICAL_SURFACE ( 'NONE', #170, 16.00000000000000000 ) ;
#280 = DIRECTION ( 'NONE',  ( 1.000000000000000000, 0.0000000000000000000, -1.224646799147353200E-016 ) ) ;
#281 = DIRECTION ( 'NONE',  ( 1.224646799147353200E-016, -0.0000000000000000000, 1.000000000000000000 ) ) ;
#282 = CARTESIAN_POINT ( 'NONE',  ( 0.0000000000000000000, 15.99193338482966800, 0.0000000000000000000 ) ) ;
#283 = AXIS2_PLACEMENT_3D ( 'NONE', #220, #219, #218 ) ;
#284 = DIRECTION ( 'NONE',  ( 0.0000000000000000000, 0.0000000000000000000, 1.000000000000000000 ) ) ;
#285 = PRODUCT_DEFINITION_SHAPE ( 'NONE', 'NONE',  #185 ) ;
#286 = CC_DESIGN_PERSON_AND_ORGANIZATION_ASSIGNMENT ( #299, #287, ( #300 ) ) ;
#287 = PERSON_AND_ORGANIZATION_ROLE ( 'classification_officer' ) ;
#288 = CC_DESIGN_DATE_AND_TIME_ASSIGNMENT ( #290, #289, ( #300 ) ) ;
#289 = DATE_TIME_ROLE ( 'classification_date' ) ;
#290 = DATE_AND_TIME ( #295, #296 ) ;
#291 = SHAPE_DEFINITION_REPRESENTATION ( #285, #248 ) ;
#292 = PRODUCT_RELATED_PRODUCT_CATEGORY ( 'detail', '', ( #162 ) ) ;
#293 = CC_DESIGN_PERSON_AND_ORGANIZATION_ASSIGNMENT ( #128, #58, ( #32 ) ) ;
#294 = SECURITY_CLASSIFICATION_LEVEL ( 'unclassified' ) ;
#295 = CALENDAR_DATE ( 2012, 30, 3 ) ;
#296 = LOCAL_TIME ( 14, 0, 38.00000000000000000, #297 ) ;
#297 = COORDINATED_UNIVERSAL_TIME_OFFSET ( 5, 0, .BEHIND. ) ;
#298 = PERSON_AND_ORGANIZATION ( #161, #192 ) ;
#299 = PERSON_AND_ORGANIZATION ( #161, #192 ) ;
#300 = SECURITY_CLASSIFICATION ( '', '', #294 ) ;
#301 = DATE_AND_TIME ( #302, #303 ) ;
#302 = CALENDAR_DATE ( 2012, 30, 3 ) ;
#303 = LOCAL_TIME ( 14, 0, 38.00000000000000000, #304 ) ;
#304 = COORDINATED_UNIVERSAL_TIME_OFFSET ( 5, 0, .BEHIND. ) ;
#305 = APPROVAL_PERSON_ORGANIZATION ( #298, #307, #306 ) ;
#306 = APPROVAL_ROLE ( '' ) ;
#307 = APPROVAL ( #308, 'UNSPECIFIED' ) ;
#308 = APPROVAL_STATUS ( 'not_yet_approved' ) ;
#309 = CC_DESIGN_SECURITY_CLASSIFICATION ( #300, ( #32 ) ) ;
#310 = CC_DESIGN_APPROVAL ( #307, ( #300 ) ) ;
#311 = APPROVAL_DATE_TIME ( #301, #307 ) ;
ENDSEC;
END-ISO-10303-21;
