ISO-10303-21;
HEADER;
FILE_DESCRIPTION( ( '' ), '1' );
FILE_NAME( 'C:/Users/Bollwitte/Desktop/987/K0172.1081.stp', '2012-10-29T10:57:16', ( '' ), ( '' ), ' ', ' ', ' ' );
FILE_SCHEMA( ( 'CONFIG_CONTROL_DESIGN' ) );
ENDSEC;
DATA;
#1 = DESIGN_CONTEXT( '', #27, 'design' );
#2 = APPLICATION_PROTOCOL_DEFINITION( 'INTERNATIONAL STANDARD', 'config_control_design', 1994, #27 );
#3 = PRODUCT_CATEGORY_RELATIONSHIP( 'NONE', 'NONE', #28, #29 );
#4 = DATE_AND_TIME( #30, #31 );
#5 = DATE_TIME_ROLE( 'creation_date' );
#6 = DATE_TIME_ROLE( 'classification_date' );
#7 = PERSON_AND_ORGANIZATION_ROLE( 'creator' );
#8 = PERSON_AND_ORGANIZATION_ROLE( 'design_supplier' );
#9 = PERSON_AND_ORGANIZATION_ROLE( 'classification_officer' );
#10 = PERSON_AND_ORGANIZATION_ROLE( 'design_owner' );
#11 = APPROVAL_PERSON_ORGANIZATION( #32, #33, #34 );
#12 = APPROVAL_DATE_TIME( #4, #33 );
#13 = CC_DESIGN_APPROVAL( #33, ( #35, #36, #37 ) );
#14 = CC_DESIGN_DATE_AND_TIME_ASSIGNMENT( #4, #5, ( #37 ) );
#15 = CC_DESIGN_DATE_AND_TIME_ASSIGNMENT( #4, #6, ( #35 ) );
#16 = CC_DESIGN_PERSON_AND_ORGANIZATION_ASSIGNMENT( #32, #10, ( #38 ) );
#17 = CC_DESIGN_PERSON_AND_ORGANIZATION_ASSIGNMENT( #32, #7, ( #37 ) );
#18 = CC_DESIGN_PERSON_AND_ORGANIZATION_ASSIGNMENT( #32, #7, ( #36 ) );
#19 = CC_DESIGN_PERSON_AND_ORGANIZATION_ASSIGNMENT( #32, #8, ( #36 ) );
#20 = CC_DESIGN_SECURITY_CLASSIFICATION( #35, ( #36 ) );
#21 = CC_DESIGN_PERSON_AND_ORGANIZATION_ASSIGNMENT( #32, #9, ( #35 ) );
#22 = SHAPE_DEFINITION_REPRESENTATION( #39, #40 );
#23 =  ( GEOMETRIC_REPRESENTATION_CONTEXT( 3 )GLOBAL_UNCERTAINTY_ASSIGNED_CONTEXT( ( #43 ) )GLOBAL_UNIT_ASSIGNED_CONTEXT( ( #45, #46, #47 ) )REPRESENTATION_CONTEXT( 'NONE', 'WORKSPACE' ) );
#27 = APPLICATION_CONTEXT( 'CONFIGURATION CONTROLLED 3D DESIGNS OF MECHANICAL PARTS AND ASSEMBLIES' );
#28 = PRODUCT_CATEGORY( 'part', 'NONE' );
#29 = PRODUCT_RELATED_PRODUCT_CATEGORY( 'detail', ' ', ( #38 ) );
#30 = CALENDAR_DATE( 2012, 29, 9 );
#31 = LOCAL_TIME( 11, 57, 16.0000000000000, #49 );
#32 = PERSON_AND_ORGANIZATION( #50, #51 );
#33 = APPROVAL( #52, 'SOLID MODEL' );
#34 = APPROVAL_ROLE( 'APPROVED' );
#35 = SECURITY_CLASSIFICATION( '', '', #53 );
#36 = PRODUCT_DEFINITION_FORMATION_WITH_SPECIFIED_SOURCE( ' ', 'NONE', #38, .NOT_KNOWN. );
#37 = PRODUCT_DEFINITION( 'NONE', 'NONE', #36, #1 );
#38 = PRODUCT( '1', '1', 'PART-1-DESC', ( #54 ) );
#39 = PRODUCT_DEFINITION_SHAPE( 'NONE', 'NONE', #37 );
#40 = ADVANCED_BREP_SHAPE_REPRESENTATION( '1', ( #55, #56 ), #23 );
#43 = UNCERTAINTY_MEASURE_WITH_UNIT( LENGTH_MEASURE( 1.00000000000000E-006 ), #45, '', '' );
#45 =  ( CONVERSION_BASED_UNIT( 'MILLIMETRE', #59 )LENGTH_UNIT(  )NAMED_UNIT( #62 ) );
#46 =  ( NAMED_UNIT( #64 )PLANE_ANGLE_UNIT(  )SI_UNIT( $, .RADIAN. ) );
#47 =  ( NAMED_UNIT( #64 )SOLID_ANGLE_UNIT(  )SI_UNIT( $, .STERADIAN. ) );
#49 = COORDINATED_UNIVERSAL_TIME_OFFSET( 1, 0, .AHEAD. );
#50 = PERSON( '', 'UNSPECIFIED', $, $, $, $ );
#51 = ORGANIZATION( 'UNSPECIFIED', 'UNSPECIFIED', 'UNSPECIFIED' );
#52 = APPROVAL_STATUS( 'approved' );
#53 = SECURITY_CLASSIFICATION_LEVEL( 'unclassified' );
#54 = MECHANICAL_CONTEXT( '', #27, 'mechanical' );
#55 = MANIFOLD_SOLID_BREP( '1', #70 );
#56 = AXIS2_PLACEMENT_3D( '', #71, #72, #73 );
#59 = LENGTH_MEASURE_WITH_UNIT( LENGTH_MEASURE( 1.00000000000000 ), #74 );
#62 = DIMENSIONAL_EXPONENTS( 1.00000000000000, 0.000000000000000, 0.000000000000000, 0.000000000000000, 0.000000000000000, 0.000000000000000, 0.000000000000000 );
#64 = DIMENSIONAL_EXPONENTS( 0.000000000000000, 0.000000000000000, 0.000000000000000, 0.000000000000000, 0.000000000000000, 0.000000000000000, 0.000000000000000 );
#70 = CLOSED_SHELL( '', ( #75, #76, #77, #78, #79, #80, #81, #82, #83, #84, #85, #86, #87 ) );
#71 = CARTESIAN_POINT( '', ( 0.000000000000000, 0.000000000000000, 0.000000000000000 ) );
#72 = DIRECTION( '', ( 0.000000000000000, 0.000000000000000, 1.00000000000000 ) );
#73 = DIRECTION( '', ( 1.00000000000000, 0.000000000000000, 0.000000000000000 ) );
#74 =  ( NAMED_UNIT( #62 )LENGTH_UNIT(  )SI_UNIT( .MILLI., .METRE. ) );
#75 = ADVANCED_FACE( '', ( #89 ), #90, .T. );
#76 = ADVANCED_FACE( '', ( #91 ), #92, .T. );
#77 = ADVANCED_FACE( '', ( #93 ), #94, .F. );
#78 = ADVANCED_FACE( '', ( #95 ), #96, .F. );
#79 = ADVANCED_FACE( '', ( #97 ), #98, .F. );
#80 = ADVANCED_FACE( '', ( #99 ), #100, .F. );
#81 = ADVANCED_FACE( '', ( #101, #102 ), #103, .F. );
#82 = ADVANCED_FACE( '', ( #104 ), #105, .F. );
#83 = ADVANCED_FACE( '', ( #106 ), #107, .F. );
#84 = ADVANCED_FACE( '', ( #108, #109 ), #110, .T. );
#85 = ADVANCED_FACE( '', ( #111 ), #112, .T. );
#86 = ADVANCED_FACE( '', ( #113 ), #114, .T. );
#87 = ADVANCED_FACE( '', ( #115 ), #116, .T. );
#89 = FACE_OUTER_BOUND( '', #117, .T. );
#90 = CYLINDRICAL_SURFACE( '', #118, 11.5000000000000 );
#91 = FACE_OUTER_BOUND( '', #119, .T. );
#92 = CONICAL_SURFACE( '', #120, 10.2500000000000, 0.0656948015524647 );
#93 = FACE_OUTER_BOUND( '', #121, .T. );
#94 = CONICAL_SURFACE( '', #122, 1.66175000000000, 1.04719755119660 );
#95 = FACE_OUTER_BOUND( '', #123, .T. );
#96 = CYLINDRICAL_SURFACE( '', #124, 3.32350000000000 );
#97 = FACE_OUTER_BOUND( '', #125, .T. );
#98 = CYLINDRICAL_SURFACE( '', #126, 4.25000000000000 );
#99 = FACE_OUTER_BOUND( '', #127, .T. );
#100 = CYLINDRICAL_SURFACE( '', #128, 4.25000000000000 );
#101 = FACE_BOUND( '', #129, .T. );
#102 = FACE_OUTER_BOUND( '', #130, .T. );
#103 = PLANE( '', #131 );
#104 = FACE_OUTER_BOUND( '', #132, .T. );
#105 = CYLINDRICAL_SURFACE( '', #133, 3.32350000000000 );
#106 = FACE_OUTER_BOUND( '', #134, .T. );
#107 = CONICAL_SURFACE( '', #135, 1.66175000000000, 1.04719755119660 );
#108 = FACE_BOUND( '', #136, .T. );
#109 = FACE_OUTER_BOUND( '', #137, .T. );
#110 = PLANE( '', #138 );
#111 = FACE_OUTER_BOUND( '', #139, .T. );
#112 = CONICAL_SURFACE( '', #140, 10.2500000000000, 0.0656948015524647 );
#113 = FACE_OUTER_BOUND( '', #141, .T. );
#114 = CYLINDRICAL_SURFACE( '', #142, 11.5000000000000 );
#115 = FACE_OUTER_BOUND( '', #143, .T. );
#116 = SPHERICAL_SURFACE( '', #144, 59.9999999999993 );
#117 = EDGE_LOOP( '', ( #145, #146, #147, #148 ) );
#118 = AXIS2_PLACEMENT_3D( '', #149, #150, #151 );
#119 = EDGE_LOOP( '', ( #152, #153, #154, #155 ) );
#120 = AXIS2_PLACEMENT_3D( '', #156, #157, #158 );
#121 = EDGE_LOOP( '', ( #159, #160, #161 ) );
#122 = AXIS2_PLACEMENT_3D( '', #162, #163, #164 );
#123 = EDGE_LOOP( '', ( #165, #166, #167, #168 ) );
#124 = AXIS2_PLACEMENT_3D( '', #169, #170, #171 );
#125 = EDGE_LOOP( '', ( #172, #173, #174, #175 ) );
#126 = AXIS2_PLACEMENT_3D( '', #176, #177, #178 );
#127 = EDGE_LOOP( '', ( #179, #180, #181, #182 ) );
#128 = AXIS2_PLACEMENT_3D( '', #183, #184, #185 );
#129 = EDGE_LOOP( '', ( #186, #187 ) );
#130 = EDGE_LOOP( '', ( #188, #189 ) );
#131 = AXIS2_PLACEMENT_3D( '', #190, #191, #192 );
#132 = EDGE_LOOP( '', ( #193, #194, #195, #196 ) );
#133 = AXIS2_PLACEMENT_3D( '', #197, #198, #199 );
#134 = EDGE_LOOP( '', ( #200, #201, #202 ) );
#135 = AXIS2_PLACEMENT_3D( '', #203, #204, #205 );
#136 = EDGE_LOOP( '', ( #206, #207 ) );
#137 = EDGE_LOOP( '', ( #208, #209 ) );
#138 = AXIS2_PLACEMENT_3D( '', #210, #211, #212 );
#139 = EDGE_LOOP( '', ( #213, #214, #215, #216 ) );
#140 = AXIS2_PLACEMENT_3D( '', #217, #218, #219 );
#141 = EDGE_LOOP( '', ( #220, #221, #222, #223 ) );
#142 = AXIS2_PLACEMENT_3D( '', #224, #225, #226 );
#143 = EDGE_LOOP( '', ( #227, #228 ) );
#144 = AXIS2_PLACEMENT_3D( '', #229, #230, #231 );
#145 = ORIENTED_EDGE( '', *, *, #232, .F. );
#146 = ORIENTED_EDGE( '', *, *, #233, .T. );
#147 = ORIENTED_EDGE( '', *, *, #234, .F. );
#148 = ORIENTED_EDGE( '', *, *, #235, .F. );
#149 = CARTESIAN_POINT( '', ( 0.000000000000000, 48.4438024039015, 0.000000000000000 ) );
#150 = DIRECTION( '', ( -0.000000000000000, -1.00000000000000, -0.000000000000000 ) );
#151 = DIRECTION( '', ( 1.00000000000000, 0.000000000000000, -2.44921270764475E-016 ) );
#152 = ORIENTED_EDGE( '', *, *, #236, .F. );
#153 = ORIENTED_EDGE( '', *, *, #237, .T. );
#154 = ORIENTED_EDGE( '', *, *, #238, .F. );
#155 = ORIENTED_EDGE( '', *, *, #233, .F. );
#156 = CARTESIAN_POINT( '', ( 0.000000000000000, 19.0000000000000, 0.000000000000000 ) );
#157 = DIRECTION( '', ( -0.000000000000000, 1.00000000000000, 0.000000000000000 ) );
#158 = DIRECTION( '', ( 1.00000000000000, 0.000000000000000, -2.44921270764475E-016 ) );
#159 = ORIENTED_EDGE( '', *, *, #239, .T. );
#160 = ORIENTED_EDGE( '', *, *, #240, .T. );
#161 = ORIENTED_EDGE( '', *, *, #241, .F. );
#162 = CARTESIAN_POINT( '', ( -4.27650792783042E-016, 24.9594118098259, 0.000000000000000 ) );
#163 = DIRECTION( '', ( 1.71338489881675E-017, -1.00000000000000, -4.95563503392823E-049 ) );
#164 = DIRECTION( '', ( 1.00000000000000, 1.71338489881675E-017, -2.44921270764475E-016 ) );
#165 = ORIENTED_EDGE( '', *, *, #242, .F. );
#166 = ORIENTED_EDGE( '', *, *, #243, .T. );
#167 = ORIENTED_EDGE( '', *, *, #244, .F. );
#168 = ORIENTED_EDGE( '', *, *, #245, .F. );
#169 = CARTESIAN_POINT( '', ( -2.74141583810681E-016, 16.0000000000000, 0.000000000000000 ) );
#170 = DIRECTION( '', ( 1.71338489881675E-017, -1.00000000000000, -4.95563503392823E-049 ) );
#171 = DIRECTION( '', ( 1.00000000000000, 1.71338489881675E-017, -2.44921270764475E-016 ) );
#172 = ORIENTED_EDGE( '', *, *, #246, .F. );
#173 = ORIENTED_EDGE( '', *, *, #247, .T. );
#174 = ORIENTED_EDGE( '', *, *, #248, .F. );
#175 = ORIENTED_EDGE( '', *, *, #249, .F. );
#176 = CARTESIAN_POINT( '', ( -6.85353959526702E-017, 4.00000000000000, 0.000000000000000 ) );
#177 = DIRECTION( '', ( 1.71338489881675E-017, -1.00000000000000, -0.000000000000000 ) );
#178 = DIRECTION( '', ( 1.00000000000000, 1.71338489881675E-017, -2.44921270764475E-016 ) );
#179 = ORIENTED_EDGE( '', *, *, #246, .T. );
#180 = ORIENTED_EDGE( '', *, *, #250, .F. );
#181 = ORIENTED_EDGE( '', *, *, #248, .T. );
#182 = ORIENTED_EDGE( '', *, *, #251, .T. );
#183 = CARTESIAN_POINT( '', ( -6.85353959526702E-017, 4.00000000000000, 0.000000000000000 ) );
#184 = DIRECTION( '', ( 1.71338489881675E-017, -1.00000000000000, -0.000000000000000 ) );
#185 = DIRECTION( '', ( 1.00000000000000, 1.71338489881675E-017, -2.44921270764475E-016 ) );
#186 = ORIENTED_EDGE( '', *, *, #245, .T. );
#187 = ORIENTED_EDGE( '', *, *, #252, .T. );
#188 = ORIENTED_EDGE( '', *, *, #247, .F. );
#189 = ORIENTED_EDGE( '', *, *, #251, .F. );
#190 = CARTESIAN_POINT( '', ( 3.78675000000000, 8.00000000000000, -9.27455622067378E-016 ) );
#191 = DIRECTION( '', ( -1.02779841364747E-048, 1.00000000000000, -4.19644406726862E-033 ) );
#192 = DIRECTION( '', ( 1.00000000000000, 0.000000000000000, -2.44921270764475E-016 ) );
#193 = ORIENTED_EDGE( '', *, *, #242, .T. );
#194 = ORIENTED_EDGE( '', *, *, #252, .F. );
#195 = ORIENTED_EDGE( '', *, *, #244, .T. );
#196 = ORIENTED_EDGE( '', *, *, #241, .T. );
#197 = CARTESIAN_POINT( '', ( -2.74141583810681E-016, 16.0000000000000, 0.000000000000000 ) );
#198 = DIRECTION( '', ( 1.71338489881675E-017, -1.00000000000000, -4.95563503392823E-049 ) );
#199 = DIRECTION( '', ( 1.00000000000000, 1.71338489881675E-017, -2.44921270764475E-016 ) );
#200 = ORIENTED_EDGE( '', *, *, #239, .F. );
#201 = ORIENTED_EDGE( '', *, *, #243, .F. );
#202 = ORIENTED_EDGE( '', *, *, #240, .F. );
#203 = CARTESIAN_POINT( '', ( -4.27650792783042E-016, 24.9594118098259, 0.000000000000000 ) );
#204 = DIRECTION( '', ( 1.71338489881675E-017, -1.00000000000000, -4.95563503392823E-049 ) );
#205 = DIRECTION( '', ( 1.00000000000000, 1.71338489881675E-017, -2.44921270764475E-016 ) );
#206 = ORIENTED_EDGE( '', *, *, #249, .T. );
#207 = ORIENTED_EDGE( '', *, *, #250, .T. );
#208 = ORIENTED_EDGE( '', *, *, #237, .F. );
#209 = ORIENTED_EDGE( '', *, *, #253, .F. );
#210 = CARTESIAN_POINT( '', ( 4.50000000000000, 0.000000000000000, -1.10214571844014E-015 ) );
#211 = DIRECTION( '', ( -0.000000000000000, -1.00000000000000, 0.000000000000000 ) );
#212 = DIRECTION( '', ( -1.00000000000000, 0.000000000000000, 2.44921270764475E-016 ) );
#213 = ORIENTED_EDGE( '', *, *, #236, .T. );
#214 = ORIENTED_EDGE( '', *, *, #254, .F. );
#215 = ORIENTED_EDGE( '', *, *, #238, .T. );
#216 = ORIENTED_EDGE( '', *, *, #253, .T. );
#217 = CARTESIAN_POINT( '', ( 0.000000000000000, 19.0000000000000, 0.000000000000000 ) );
#218 = DIRECTION( '', ( -0.000000000000000, 1.00000000000000, 0.000000000000000 ) );
#219 = DIRECTION( '', ( 1.00000000000000, 0.000000000000000, -2.44921270764475E-016 ) );
#220 = ORIENTED_EDGE( '', *, *, #232, .T. );
#221 = ORIENTED_EDGE( '', *, *, #255, .F. );
#222 = ORIENTED_EDGE( '', *, *, #234, .T. );
#223 = ORIENTED_EDGE( '', *, *, #254, .T. );
#224 = CARTESIAN_POINT( '', ( 0.000000000000000, 48.4438024039015, 0.000000000000000 ) );
#225 = DIRECTION( '', ( -0.000000000000000, -1.00000000000000, -0.000000000000000 ) );
#226 = DIRECTION( '', ( 1.00000000000000, 0.000000000000000, -2.44921270764475E-016 ) );
#227 = ORIENTED_EDGE( '', *, *, #235, .T. );
#228 = ORIENTED_EDGE( '', *, *, #255, .T. );
#229 = CARTESIAN_POINT( '', ( 0.000000000000000, 7.38964445190504E-013, 0.000000000000000 ) );
#230 = DIRECTION( '', ( 0.000000000000000, 0.000000000000000, 1.00000000000000 ) );
#231 = DIRECTION( '', ( 1.00000000000000, 0.000000000000000, 0.000000000000000 ) );
#232 = EDGE_CURVE( '', #256, #257, #258, .T. );
#233 = EDGE_CURVE( '', #256, #259, #260, .T. );
#234 = EDGE_CURVE( '', #261, #259, #262, .T. );
#235 = EDGE_CURVE( '', #257, #261, #263, .T. );
#236 = EDGE_CURVE( '', #264, #256, #265, .T. );
#237 = EDGE_CURVE( '', #264, #266, #267, .T. );
#238 = EDGE_CURVE( '', #259, #266, #268, .T. );
#239 = EDGE_CURVE( '', #269, #270, #271, .T. );
#240 = EDGE_CURVE( '', #270, #272, #273, .T. );
#241 = EDGE_CURVE( '', #269, #272, #274, .T. );
#242 = EDGE_CURVE( '', #272, #275, #276, .T. );
#243 = EDGE_CURVE( '', #272, #269, #277, .T. );
#244 = EDGE_CURVE( '', #278, #269, #279, .T. );
#245 = EDGE_CURVE( '', #275, #278, #280, .T. );
#246 = EDGE_CURVE( '', #281, #282, #283, .T. );
#247 = EDGE_CURVE( '', #281, #284, #285, .T. );
#248 = EDGE_CURVE( '', #286, #284, #287, .T. );
#249 = EDGE_CURVE( '', #282, #286, #288, .T. );
#250 = EDGE_CURVE( '', #286, #282, #289, .T. );
#251 = EDGE_CURVE( '', #284, #281, #290, .T. );
#252 = EDGE_CURVE( '', #278, #275, #291, .T. );
#253 = EDGE_CURVE( '', #266, #264, #292, .T. );
#254 = EDGE_CURVE( '', #259, #256, #293, .T. );
#255 = EDGE_CURVE( '', #261, #257, #294, .T. );
#256 = VERTEX_POINT( '', #295 );
#257 = VERTEX_POINT( '', #296 );
#258 = LINE( '', #297, #298 );
#259 = VERTEX_POINT( '', #299 );
#260 = CIRCLE( '', #300, 11.5000000000000 );
#261 = VERTEX_POINT( '', #301 );
#262 = LINE( '', #302, #303 );
#263 = CIRCLE( '', #304, 11.5000000000000 );
#264 = VERTEX_POINT( '', #305 );
#265 = LINE( '', #306, #307 );
#266 = VERTEX_POINT( '', #308 );
#267 = CIRCLE( '', #309, 9.00000000000000 );
#268 = LINE( '', #310, #311 );
#269 = VERTEX_POINT( '', #312 );
#270 = VERTEX_POINT( '', #313 );
#271 = LINE( '', #314, #315 );
#272 = VERTEX_POINT( '', #316 );
#273 = LINE( '', #317, #318 );
#274 = CIRCLE( '', #319, 3.32350000000000 );
#275 = VERTEX_POINT( '', #320 );
#276 = LINE( '', #321, #322 );
#277 = CIRCLE( '', #323, 3.32350000000000 );
#278 = VERTEX_POINT( '', #324 );
#279 = LINE( '', #325, #326 );
#280 = CIRCLE( '', #327, 3.32350000000000 );
#281 = VERTEX_POINT( '', #328 );
#282 = VERTEX_POINT( '', #329 );
#283 = LINE( '', #330, #331 );
#284 = VERTEX_POINT( '', #332 );
#285 = CIRCLE( '', #333, 4.25000000000000 );
#286 = VERTEX_POINT( '', #334 );
#287 = LINE( '', #335, #336 );
#288 = CIRCLE( '', #337, 4.25000000000000 );
#289 = CIRCLE( '', #338, 4.25000000000000 );
#290 = CIRCLE( '', #339, 4.25000000000000 );
#291 = CIRCLE( '', #340, 3.32350000000000 );
#292 = CIRCLE( '', #341, 9.00000000000000 );
#293 = CIRCLE( '', #342, 11.5000000000000 );
#294 = CIRCLE( '', #343, 11.5000000000000 );
#295 = CARTESIAN_POINT( '', ( 11.5000000000000, 38.0000000000000, -2.81659461379147E-015 ) );
#296 = CARTESIAN_POINT( '', ( 11.5000000000000, 58.8876048078031, -2.81659461379146E-015 ) );
#297 = CARTESIAN_POINT( '', ( 11.5000000000000, 48.4438024039015, -1.40829730689573E-015 ) );
#298 = VECTOR( '', #344, 1.00000000000000 );
#299 = CARTESIAN_POINT( '', ( -11.5000000000000, 38.0000000000000, 1.40829730689573E-015 ) );
#300 = AXIS2_PLACEMENT_3D( '', #345, #346, #347 );
#301 = CARTESIAN_POINT( '', ( -11.5000000000000, 58.8876048078031, 1.40829730689573E-015 ) );
#302 = CARTESIAN_POINT( '', ( -11.5000000000000, 48.4438024039015, 1.40829730689573E-015 ) );
#303 = VECTOR( '', #348, 1.00000000000000 );
#304 = AXIS2_PLACEMENT_3D( '', #349, #350, #351 );
#305 = CARTESIAN_POINT( '', ( 9.00000000000000, 0.000000000000000, -2.20429143688028E-015 ) );
#306 = CARTESIAN_POINT( '', ( 10.2500000000000, 19.0000000000000, -1.25522151266794E-015 ) );
#307 = VECTOR( '', #352, 1.00000000000000 );
#308 = CARTESIAN_POINT( '', ( -9.00000000000000, 0.000000000000000, 1.10214571844014E-015 ) );
#309 = AXIS2_PLACEMENT_3D( '', #353, #354, #355 );
#310 = CARTESIAN_POINT( '', ( -10.2500000000000, 19.0000000000000, 1.25522151266794E-015 ) );
#311 = VECTOR( '', #356, 1.00000000000000 );
#312 = CARTESIAN_POINT( '', ( -3.32350000000000, 24.0000000000000, 4.06997921692867E-016 ) );
#313 = CARTESIAN_POINT( '', ( -4.44089209850063E-016, 25.9188236196517, 0.000000000000000 ) );
#314 = CARTESIAN_POINT( '', ( -1.66175000000000, 24.9594118098259, 2.03498960846434E-016 ) );
#315 = VECTOR( '', #357, 1.00000000000000 );
#316 = CARTESIAN_POINT( '', ( 3.32350000000000, 24.0000000000000, -8.13995843385734E-016 ) );
#317 = CARTESIAN_POINT( '', ( 1.66175000000000, 24.9594118098259, -2.03498960846433E-016 ) );
#318 = VECTOR( '', #358, 1.00000000000000 );
#319 = AXIS2_PLACEMENT_3D( '', #359, #360, #361 );
#320 = CARTESIAN_POINT( '', ( 3.32350000000000, 8.00000000000000, -8.13995843385734E-016 ) );
#321 = CARTESIAN_POINT( '', ( 3.32350000000000, 16.0000000000000, -4.06997921692867E-016 ) );
#322 = VECTOR( '', #362, 1.00000000000000 );
#323 = AXIS2_PLACEMENT_3D( '', #363, #364, #365 );
#324 = CARTESIAN_POINT( '', ( -3.32350000000000, 8.00000000000000, 4.06997921692867E-016 ) );
#325 = CARTESIAN_POINT( '', ( -3.32350000000000, 16.0000000000000, 4.06997921692867E-016 ) );
#326 = VECTOR( '', #366, 1.00000000000000 );
#327 = AXIS2_PLACEMENT_3D( '', #367, #368, #369 );
#328 = CARTESIAN_POINT( '', ( 4.25000000000000, 8.00000000000000, -1.04091540074902E-015 ) );
#329 = CARTESIAN_POINT( '', ( 4.25000000000000, 0.000000000000000, -1.04091540074902E-015 ) );
#330 = CARTESIAN_POINT( '', ( 4.25000000000000, 4.00000000000000, -5.20457700374510E-016 ) );
#331 = VECTOR( '', #370, 1.00000000000000 );
#332 = CARTESIAN_POINT( '', ( -4.25000000000000, 8.00000000000000, 5.20457700374510E-016 ) );
#333 = AXIS2_PLACEMENT_3D( '', #371, #372, #373 );
#334 = CARTESIAN_POINT( '', ( -4.25000000000000, 0.000000000000000, 5.20457700374510E-016 ) );
#335 = CARTESIAN_POINT( '', ( -4.25000000000000, 4.00000000000000, 5.20457700374510E-016 ) );
#336 = VECTOR( '', #374, 1.00000000000000 );
#337 = AXIS2_PLACEMENT_3D( '', #375, #376, #377 );
#338 = AXIS2_PLACEMENT_3D( '', #378, #379, #380 );
#339 = AXIS2_PLACEMENT_3D( '', #381, #382, #383 );
#340 = AXIS2_PLACEMENT_3D( '', #384, #385, #386 );
#341 = AXIS2_PLACEMENT_3D( '', #387, #388, #389 );
#342 = AXIS2_PLACEMENT_3D( '', #390, #391, #392 );
#343 = AXIS2_PLACEMENT_3D( '', #393, #394, #395 );
#344 = DIRECTION( '', ( 0.000000000000000, 1.00000000000000, 0.000000000000000 ) );
#345 = CARTESIAN_POINT( '', ( 0.000000000000000, 38.0000000000000, 0.000000000000000 ) );
#346 = DIRECTION( '', ( 0.000000000000000, 1.00000000000000, 0.000000000000000 ) );
#347 = DIRECTION( '', ( 1.00000000000000, 0.000000000000000, -2.44921270764475E-016 ) );
#348 = DIRECTION( '', ( -0.000000000000000, -1.00000000000000, -0.000000000000000 ) );
#349 = CARTESIAN_POINT( '', ( 0.000000000000000, 58.8876048078031, 0.000000000000000 ) );
#350 = DIRECTION( '', ( 0.000000000000000, 1.00000000000000, 0.000000000000000 ) );
#351 = DIRECTION( '', ( 1.00000000000000, 0.000000000000000, -2.44921270764475E-016 ) );
#352 = DIRECTION( '', ( 0.0656475574015846, 0.997842872504086, -8.03924159068998E-018 ) );
#353 = CARTESIAN_POINT( '', ( 0.000000000000000, 0.000000000000000, 0.000000000000000 ) );
#354 = DIRECTION( '', ( 0.000000000000000, 1.00000000000000, 0.000000000000000 ) );
#355 = DIRECTION( '', ( 1.00000000000000, 0.000000000000000, -2.44921270764475E-016 ) );
#356 = DIRECTION( '', ( 0.0656475574015846, -0.997842872504086, -8.03924159068998E-018 ) );
#357 = DIRECTION( '', ( 0.866025403784439, 0.500000000000000, -1.06054021204601E-016 ) );
#358 = DIRECTION( '', ( 0.866025403784439, -0.500000000000000, -1.06054021204601E-016 ) );
#359 = CARTESIAN_POINT( '', ( -4.11212375716021E-016, 24.0000000000000, 0.000000000000000 ) );
#360 = DIRECTION( '', ( -1.71338489881675E-017, 1.00000000000000, 4.95563503392823E-049 ) );
#361 = DIRECTION( '', ( 1.00000000000000, 1.71338489881675E-017, -2.44921270764475E-016 ) );
#362 = DIRECTION( '', ( 1.71338489881675E-017, -1.00000000000000, 0.000000000000000 ) );
#363 = CARTESIAN_POINT( '', ( -4.11212375716021E-016, 24.0000000000000, 0.000000000000000 ) );
#364 = DIRECTION( '', ( -1.71338489881675E-017, 1.00000000000000, 4.95563503392823E-049 ) );
#365 = DIRECTION( '', ( 1.00000000000000, 1.71338489881675E-017, -2.44921270764475E-016 ) );
#366 = DIRECTION( '', ( -1.71338489881675E-017, 1.00000000000000, 0.000000000000000 ) );
#367 = CARTESIAN_POINT( '', ( -1.37070791905340E-016, 8.00000000000000, 0.000000000000000 ) );
#368 = DIRECTION( '', ( -1.71338489881675E-017, 1.00000000000000, -4.95563503392823E-049 ) );
#369 = DIRECTION( '', ( 1.00000000000000, 1.71338489881675E-017, -2.44921270764475E-016 ) );
#370 = DIRECTION( '', ( 1.71338489881675E-017, -1.00000000000000, 0.000000000000000 ) );
#371 = CARTESIAN_POINT( '', ( -1.37070791905340E-016, 8.00000000000000, 0.000000000000000 ) );
#372 = DIRECTION( '', ( -1.71338489881675E-017, 1.00000000000000, 0.000000000000000 ) );
#373 = DIRECTION( '', ( 1.00000000000000, 1.71338489881675E-017, -2.44921270764475E-016 ) );
#374 = DIRECTION( '', ( -1.71338489881675E-017, 1.00000000000000, 0.000000000000000 ) );
#375 = CARTESIAN_POINT( '', ( 1.23259516440783E-032, 0.000000000000000, 0.000000000000000 ) );
#376 = DIRECTION( '', ( 0.000000000000000, 1.00000000000000, 0.000000000000000 ) );
#377 = DIRECTION( '', ( 1.00000000000000, 0.000000000000000, -2.44921270764475E-016 ) );
#378 = CARTESIAN_POINT( '', ( 1.23259516440783E-032, 0.000000000000000, 0.000000000000000 ) );
#379 = DIRECTION( '', ( 0.000000000000000, 1.00000000000000, 0.000000000000000 ) );
#380 = DIRECTION( '', ( 1.00000000000000, 0.000000000000000, -2.44921270764475E-016 ) );
#381 = CARTESIAN_POINT( '', ( -1.37070791905340E-016, 8.00000000000000, 0.000000000000000 ) );
#382 = DIRECTION( '', ( -1.71338489881675E-017, 1.00000000000000, 0.000000000000000 ) );
#383 = DIRECTION( '', ( 1.00000000000000, 1.71338489881675E-017, -2.44921270764475E-016 ) );
#384 = CARTESIAN_POINT( '', ( -1.37070791905340E-016, 8.00000000000000, 0.000000000000000 ) );
#385 = DIRECTION( '', ( -1.71338489881675E-017, 1.00000000000000, -4.95563503392823E-049 ) );
#386 = DIRECTION( '', ( 1.00000000000000, 1.71338489881675E-017, -2.44921270764475E-016 ) );
#387 = CARTESIAN_POINT( '', ( 0.000000000000000, 0.000000000000000, 0.000000000000000 ) );
#388 = DIRECTION( '', ( 0.000000000000000, 1.00000000000000, 0.000000000000000 ) );
#389 = DIRECTION( '', ( 1.00000000000000, 0.000000000000000, -2.44921270764475E-016 ) );
#390 = CARTESIAN_POINT( '', ( 0.000000000000000, 38.0000000000000, 0.000000000000000 ) );
#391 = DIRECTION( '', ( 0.000000000000000, 1.00000000000000, 0.000000000000000 ) );
#392 = DIRECTION( '', ( 1.00000000000000, 0.000000000000000, -2.44921270764475E-016 ) );
#393 = CARTESIAN_POINT( '', ( 0.000000000000000, 58.8876048078031, 0.000000000000000 ) );
#394 = DIRECTION( '', ( 0.000000000000000, 1.00000000000000, 0.000000000000000 ) );
#395 = DIRECTION( '', ( 1.00000000000000, 0.000000000000000, -2.44921270764475E-016 ) );
ENDSEC;
END-ISO-10303-21;
