ISO-10303-21;
HEADER;
FILE_DESCRIPTION( ( '' ), '1' );
FILE_NAME( 'C:/Users/Bollwitte/Desktop/987/K0172.206.stp', '2012-10-29T10:57:28', ( '' ), ( '' ), ' ', ' ', ' ' );
FILE_SCHEMA( ( 'CONFIG_CONTROL_DESIGN' ) );
ENDSEC;
DATA;
#1 = DESIGN_CONTEXT( '', #27, 'design' );
#2 = APPLICATION_PROTOCOL_DEFINITION( 'INTERNATIONAL STANDARD', 'config_control_design', 1994, #27 );
#3 = PRODUCT_CATEGORY_RELATIONSHIP( 'NONE', 'NONE', #28, #29 );
#4 = DATE_AND_TIME( #30, #31 );
#5 = DATE_TIME_ROLE( 'creation_date' );
#6 = DATE_TIME_ROLE( 'classification_date' );
#7 = PERSON_AND_ORGANIZATION_ROLE( 'creator' );
#8 = PERSON_AND_ORGANIZATION_ROLE( 'design_supplier' );
#9 = PERSON_AND_ORGANIZATION_ROLE( 'classification_officer' );
#10 = PERSON_AND_ORGANIZATION_ROLE( 'design_owner' );
#11 = APPROVAL_PERSON_ORGANIZATION( #32, #33, #34 );
#12 = APPROVAL_DATE_TIME( #4, #33 );
#13 = CC_DESIGN_APPROVAL( #33, ( #35, #36, #37 ) );
#14 = CC_DESIGN_DATE_AND_TIME_ASSIGNMENT( #4, #5, ( #37 ) );
#15 = CC_DESIGN_DATE_AND_TIME_ASSIGNMENT( #4, #6, ( #35 ) );
#16 = CC_DESIGN_PERSON_AND_ORGANIZATION_ASSIGNMENT( #32, #10, ( #38 ) );
#17 = CC_DESIGN_PERSON_AND_ORGANIZATION_ASSIGNMENT( #32, #7, ( #37 ) );
#18 = CC_DESIGN_PERSON_AND_ORGANIZATION_ASSIGNMENT( #32, #7, ( #36 ) );
#19 = CC_DESIGN_PERSON_AND_ORGANIZATION_ASSIGNMENT( #32, #8, ( #36 ) );
#20 = CC_DESIGN_SECURITY_CLASSIFICATION( #35, ( #36 ) );
#21 = CC_DESIGN_PERSON_AND_ORGANIZATION_ASSIGNMENT( #32, #9, ( #35 ) );
#22 = SHAPE_DEFINITION_REPRESENTATION( #39, #40 );
#23 =  ( GEOMETRIC_REPRESENTATION_CONTEXT( 3 )GLOBAL_UNCERTAINTY_ASSIGNED_CONTEXT( ( #43 ) )GLOBAL_UNIT_ASSIGNED_CONTEXT( ( #45, #46, #47 ) )REPRESENTATION_CONTEXT( 'NONE', 'WORKSPACE' ) );
#27 = APPLICATION_CONTEXT( 'CONFIGURATION CONTROLLED 3D DESIGNS OF MECHANICAL PARTS AND ASSEMBLIES' );
#28 = PRODUCT_CATEGORY( 'part', 'NONE' );
#29 = PRODUCT_RELATED_PRODUCT_CATEGORY( 'detail', ' ', ( #38 ) );
#30 = CALENDAR_DATE( 2012, 29, 9 );
#31 = LOCAL_TIME( 11, 57, 28.0000000000000, #49 );
#32 = PERSON_AND_ORGANIZATION( #50, #51 );
#33 = APPROVAL( #52, 'SOLID MODEL' );
#34 = APPROVAL_ROLE( 'APPROVED' );
#35 = SECURITY_CLASSIFICATION( '', '', #53 );
#36 = PRODUCT_DEFINITION_FORMATION_WITH_SPECIFIED_SOURCE( ' ', 'NONE', #38, .NOT_KNOWN. );
#37 = PRODUCT_DEFINITION( 'NONE', 'NONE', #36, #1 );
#38 = PRODUCT( '1', '1', 'PART-1-DESC', ( #54 ) );
#39 = PRODUCT_DEFINITION_SHAPE( 'NONE', 'NONE', #37 );
#40 = ADVANCED_BREP_SHAPE_REPRESENTATION( '1', ( #55, #56 ), #23 );
#43 = UNCERTAINTY_MEASURE_WITH_UNIT( LENGTH_MEASURE( 1.00000000000000E-006 ), #45, '', '' );
#45 =  ( CONVERSION_BASED_UNIT( 'MILLIMETRE', #59 )LENGTH_UNIT(  )NAMED_UNIT( #62 ) );
#46 =  ( NAMED_UNIT( #64 )PLANE_ANGLE_UNIT(  )SI_UNIT( $, .RADIAN. ) );
#47 =  ( NAMED_UNIT( #64 )SOLID_ANGLE_UNIT(  )SI_UNIT( $, .STERADIAN. ) );
#49 = COORDINATED_UNIVERSAL_TIME_OFFSET( 1, 0, .AHEAD. );
#50 = PERSON( '', 'UNSPECIFIED', $, $, $, $ );
#51 = ORGANIZATION( 'UNSPECIFIED', 'UNSPECIFIED', 'UNSPECIFIED' );
#52 = APPROVAL_STATUS( 'approved' );
#53 = SECURITY_CLASSIFICATION_LEVEL( 'unclassified' );
#54 = MECHANICAL_CONTEXT( '', #27, 'mechanical' );
#55 = MANIFOLD_SOLID_BREP( '1', #70 );
#56 = AXIS2_PLACEMENT_3D( '', #71, #72, #73 );
#59 = LENGTH_MEASURE_WITH_UNIT( LENGTH_MEASURE( 1.00000000000000 ), #74 );
#62 = DIMENSIONAL_EXPONENTS( 1.00000000000000, 0.000000000000000, 0.000000000000000, 0.000000000000000, 0.000000000000000, 0.000000000000000, 0.000000000000000 );
#64 = DIMENSIONAL_EXPONENTS( 0.000000000000000, 0.000000000000000, 0.000000000000000, 0.000000000000000, 0.000000000000000, 0.000000000000000, 0.000000000000000 );
#70 = CLOSED_SHELL( '', ( #75, #76, #77, #78, #79, #80, #81, #82, #83, #84, #85, #86 ) );
#71 = CARTESIAN_POINT( '', ( 0.000000000000000, 0.000000000000000, 0.000000000000000 ) );
#72 = DIRECTION( '', ( 0.000000000000000, 0.000000000000000, 1.00000000000000 ) );
#73 = DIRECTION( '', ( 1.00000000000000, 0.000000000000000, 0.000000000000000 ) );
#74 =  ( NAMED_UNIT( #62 )LENGTH_UNIT(  )SI_UNIT( .MILLI., .METRE. ) );
#75 = ADVANCED_FACE( '', ( #88 ), #89, .T. );
#76 = ADVANCED_FACE( '', ( #90 ), #91, .T. );
#77 = ADVANCED_FACE( '', ( #92 ), #93, .F. );
#78 = ADVANCED_FACE( '', ( #94 ), #95, .F. );
#79 = ADVANCED_FACE( '', ( #96 ), #97, .F. );
#80 = ADVANCED_FACE( '', ( #98 ), #99, .F. );
#81 = ADVANCED_FACE( '', ( #100 ), #101, .F. );
#82 = ADVANCED_FACE( '', ( #102 ), #103, .F. );
#83 = ADVANCED_FACE( '', ( #104, #105 ), #106, .T. );
#84 = ADVANCED_FACE( '', ( #107 ), #108, .T. );
#85 = ADVANCED_FACE( '', ( #109 ), #110, .T. );
#86 = ADVANCED_FACE( '', ( #111 ), #112, .T. );
#88 = FACE_OUTER_BOUND( '', #113, .T. );
#89 = CYLINDRICAL_SURFACE( '', #114, 8.49999999999999 );
#90 = FACE_OUTER_BOUND( '', #115, .T. );
#91 = CONICAL_SURFACE( '', #116, 8.00000000000000, 0.0384425900211880 );
#92 = FACE_OUTER_BOUND( '', #117, .T. );
#93 = CONICAL_SURFACE( '', #118, 1.22925000000000, 1.04719755119660 );
#94 = FACE_OUTER_BOUND( '', #119, .T. );
#95 = CYLINDRICAL_SURFACE( '', #120, 2.45850000000000 );
#96 = FACE_OUTER_BOUND( '', #121, .T. );
#97 = CONICAL_SURFACE( '', #122, 2.72925000000000, 0.785398163397449 );
#98 = FACE_OUTER_BOUND( '', #123, .T. );
#99 = CONICAL_SURFACE( '', #124, 2.72925000000000, 0.785398163397449 );
#100 = FACE_OUTER_BOUND( '', #125, .T. );
#101 = CYLINDRICAL_SURFACE( '', #126, 2.45850000000000 );
#102 = FACE_OUTER_BOUND( '', #127, .T. );
#103 = CONICAL_SURFACE( '', #128, 1.22925000000000, 1.04719755119660 );
#104 = FACE_BOUND( '', #129, .T. );
#105 = FACE_OUTER_BOUND( '', #130, .T. );
#106 = PLANE( '', #131 );
#107 = FACE_OUTER_BOUND( '', #132, .T. );
#108 = CONICAL_SURFACE( '', #133, 8.00000000000000, 0.0384425900211880 );
#109 = FACE_OUTER_BOUND( '', #134, .T. );
#110 = CYLINDRICAL_SURFACE( '', #135, 8.49999999999999 );
#111 = FACE_OUTER_BOUND( '', #136, .T. );
#112 = SPHERICAL_SURFACE( '', #137, 44.9999999999997 );
#113 = EDGE_LOOP( '', ( #138, #139, #140, #141 ) );
#114 = AXIS2_PLACEMENT_3D( '', #142, #143, #144 );
#115 = EDGE_LOOP( '', ( #145, #146, #147, #148 ) );
#116 = AXIS2_PLACEMENT_3D( '', #149, #150, #151 );
#117 = EDGE_LOOP( '', ( #152, #153, #154 ) );
#118 = AXIS2_PLACEMENT_3D( '', #155, #156, #157 );
#119 = EDGE_LOOP( '', ( #158, #159, #160, #161 ) );
#120 = AXIS2_PLACEMENT_3D( '', #162, #163, #164 );
#121 = EDGE_LOOP( '', ( #165, #166, #167, #168 ) );
#122 = AXIS2_PLACEMENT_3D( '', #169, #170, #171 );
#123 = EDGE_LOOP( '', ( #172, #173, #174, #175 ) );
#124 = AXIS2_PLACEMENT_3D( '', #176, #177, #178 );
#125 = EDGE_LOOP( '', ( #179, #180, #181, #182 ) );
#126 = AXIS2_PLACEMENT_3D( '', #183, #184, #185 );
#127 = EDGE_LOOP( '', ( #186, #187, #188 ) );
#128 = AXIS2_PLACEMENT_3D( '', #189, #190, #191 );
#129 = EDGE_LOOP( '', ( #192, #193 ) );
#130 = EDGE_LOOP( '', ( #194, #195 ) );
#131 = AXIS2_PLACEMENT_3D( '', #196, #197, #198 );
#132 = EDGE_LOOP( '', ( #199, #200, #201, #202 ) );
#133 = AXIS2_PLACEMENT_3D( '', #203, #204, #205 );
#134 = EDGE_LOOP( '', ( #206, #207, #208, #209 ) );
#135 = AXIS2_PLACEMENT_3D( '', #210, #211, #212 );
#136 = EDGE_LOOP( '', ( #213, #214 ) );
#137 = AXIS2_PLACEMENT_3D( '', #215, #216, #217 );
#138 = ORIENTED_EDGE( '', *, *, #218, .F. );
#139 = ORIENTED_EDGE( '', *, *, #219, .T. );
#140 = ORIENTED_EDGE( '', *, *, #220, .F. );
#141 = ORIENTED_EDGE( '', *, *, #221, .F. );
#142 = CARTESIAN_POINT( '', ( 0.000000000000000, 35.0949654899029, 0.000000000000000 ) );
#143 = DIRECTION( '', ( -0.000000000000000, -1.00000000000000, -0.000000000000000 ) );
#144 = DIRECTION( '', ( 1.00000000000000, 0.000000000000000, -2.44921270764475E-016 ) );
#145 = ORIENTED_EDGE( '', *, *, #222, .F. );
#146 = ORIENTED_EDGE( '', *, *, #223, .T. );
#147 = ORIENTED_EDGE( '', *, *, #224, .F. );
#148 = ORIENTED_EDGE( '', *, *, #219, .F. );
#149 = CARTESIAN_POINT( '', ( 0.000000000000000, 13.0000000000000, 0.000000000000000 ) );
#150 = DIRECTION( '', ( -0.000000000000000, 1.00000000000000, 0.000000000000000 ) );
#151 = DIRECTION( '', ( 1.00000000000000, 0.000000000000000, -2.44921270764475E-016 ) );
#152 = ORIENTED_EDGE( '', *, *, #225, .T. );
#153 = ORIENTED_EDGE( '', *, *, #226, .T. );
#154 = ORIENTED_EDGE( '', *, *, #227, .F. );
#155 = CARTESIAN_POINT( '', ( 0.000000000000000, 11.5097078184013, 0.000000000000000 ) );
#156 = DIRECTION( '', ( -0.000000000000000, -1.00000000000000, -0.000000000000000 ) );
#157 = DIRECTION( '', ( 1.00000000000000, 0.000000000000000, -2.44921270764475E-016 ) );
#158 = ORIENTED_EDGE( '', *, *, #228, .F. );
#159 = ORIENTED_EDGE( '', *, *, #229, .T. );
#160 = ORIENTED_EDGE( '', *, *, #230, .F. );
#161 = ORIENTED_EDGE( '', *, *, #231, .F. );
#162 = CARTESIAN_POINT( '', ( 0.000000000000000, 5.67075000000000, 0.000000000000000 ) );
#163 = DIRECTION( '', ( -0.000000000000000, -1.00000000000000, -0.000000000000000 ) );
#164 = DIRECTION( '', ( 1.00000000000000, 0.000000000000000, -2.44921270764475E-016 ) );
#165 = ORIENTED_EDGE( '', *, *, #232, .F. );
#166 = ORIENTED_EDGE( '', *, *, #231, .T. );
#167 = ORIENTED_EDGE( '', *, *, #233, .F. );
#168 = ORIENTED_EDGE( '', *, *, #234, .F. );
#169 = CARTESIAN_POINT( '', ( 0.000000000000000, 0.270750000000000, 0.000000000000000 ) );
#170 = DIRECTION( '', ( -0.000000000000000, -1.00000000000000, -0.000000000000000 ) );
#171 = DIRECTION( '', ( 1.00000000000000, 0.000000000000000, -2.44921270764475E-016 ) );
#172 = ORIENTED_EDGE( '', *, *, #232, .T. );
#173 = ORIENTED_EDGE( '', *, *, #235, .F. );
#174 = ORIENTED_EDGE( '', *, *, #233, .T. );
#175 = ORIENTED_EDGE( '', *, *, #236, .T. );
#176 = CARTESIAN_POINT( '', ( 0.000000000000000, 0.270750000000000, 0.000000000000000 ) );
#177 = DIRECTION( '', ( -0.000000000000000, -1.00000000000000, -0.000000000000000 ) );
#178 = DIRECTION( '', ( 1.00000000000000, 0.000000000000000, -2.44921270764475E-016 ) );
#179 = ORIENTED_EDGE( '', *, *, #228, .T. );
#180 = ORIENTED_EDGE( '', *, *, #236, .F. );
#181 = ORIENTED_EDGE( '', *, *, #230, .T. );
#182 = ORIENTED_EDGE( '', *, *, #227, .T. );
#183 = CARTESIAN_POINT( '', ( 0.000000000000000, 5.67075000000000, 0.000000000000000 ) );
#184 = DIRECTION( '', ( -0.000000000000000, -1.00000000000000, -0.000000000000000 ) );
#185 = DIRECTION( '', ( 1.00000000000000, 0.000000000000000, -2.44921270764475E-016 ) );
#186 = ORIENTED_EDGE( '', *, *, #225, .F. );
#187 = ORIENTED_EDGE( '', *, *, #229, .F. );
#188 = ORIENTED_EDGE( '', *, *, #226, .F. );
#189 = CARTESIAN_POINT( '', ( 0.000000000000000, 11.5097078184013, 0.000000000000000 ) );
#190 = DIRECTION( '', ( -0.000000000000000, -1.00000000000000, -0.000000000000000 ) );
#191 = DIRECTION( '', ( 1.00000000000000, 0.000000000000000, -2.44921270764475E-016 ) );
#192 = ORIENTED_EDGE( '', *, *, #234, .T. );
#193 = ORIENTED_EDGE( '', *, *, #235, .T. );
#194 = ORIENTED_EDGE( '', *, *, #223, .F. );
#195 = ORIENTED_EDGE( '', *, *, #237, .F. );
#196 = CARTESIAN_POINT( '', ( 3.75000000000000, 0.000000000000000, -9.18454765366783E-016 ) );
#197 = DIRECTION( '', ( -0.000000000000000, -1.00000000000000, 0.000000000000000 ) );
#198 = DIRECTION( '', ( -1.00000000000000, 0.000000000000000, 2.44921270764475E-016 ) );
#199 = ORIENTED_EDGE( '', *, *, #222, .T. );
#200 = ORIENTED_EDGE( '', *, *, #238, .F. );
#201 = ORIENTED_EDGE( '', *, *, #224, .T. );
#202 = ORIENTED_EDGE( '', *, *, #237, .T. );
#203 = CARTESIAN_POINT( '', ( 0.000000000000000, 13.0000000000000, 0.000000000000000 ) );
#204 = DIRECTION( '', ( -0.000000000000000, 1.00000000000000, 0.000000000000000 ) );
#205 = DIRECTION( '', ( 1.00000000000000, 0.000000000000000, -2.44921270764475E-016 ) );
#206 = ORIENTED_EDGE( '', *, *, #218, .T. );
#207 = ORIENTED_EDGE( '', *, *, #239, .F. );
#208 = ORIENTED_EDGE( '', *, *, #220, .T. );
#209 = ORIENTED_EDGE( '', *, *, #238, .T. );
#210 = CARTESIAN_POINT( '', ( 0.000000000000000, 35.0949654899029, 0.000000000000000 ) );
#211 = DIRECTION( '', ( -0.000000000000000, -1.00000000000000, -0.000000000000000 ) );
#212 = DIRECTION( '', ( 1.00000000000000, 0.000000000000000, -2.44921270764475E-016 ) );
#213 = ORIENTED_EDGE( '', *, *, #221, .T. );
#214 = ORIENTED_EDGE( '', *, *, #239, .T. );
#215 = CARTESIAN_POINT( '', ( 0.000000000000000, 4.54747350886464E-013, 0.000000000000000 ) );
#216 = DIRECTION( '', ( 0.000000000000000, 0.000000000000000, 1.00000000000000 ) );
#217 = DIRECTION( '', ( 1.00000000000000, 0.000000000000000, 0.000000000000000 ) );
#218 = EDGE_CURVE( '', #240, #241, #242, .T. );
#219 = EDGE_CURVE( '', #240, #243, #244, .T. );
#220 = EDGE_CURVE( '', #245, #243, #246, .T. );
#221 = EDGE_CURVE( '', #241, #245, #247, .T. );
#222 = EDGE_CURVE( '', #248, #240, #249, .T. );
#223 = EDGE_CURVE( '', #248, #250, #251, .T. );
#224 = EDGE_CURVE( '', #243, #250, #252, .T. );
#225 = EDGE_CURVE( '', #253, #254, #255, .T. );
#226 = EDGE_CURVE( '', #254, #256, #257, .T. );
#227 = EDGE_CURVE( '', #253, #256, #258, .T. );
#228 = EDGE_CURVE( '', #256, #259, #260, .T. );
#229 = EDGE_CURVE( '', #256, #253, #261, .T. );
#230 = EDGE_CURVE( '', #262, #253, #263, .T. );
#231 = EDGE_CURVE( '', #259, #262, #264, .T. );
#232 = EDGE_CURVE( '', #259, #265, #266, .T. );
#233 = EDGE_CURVE( '', #267, #262, #268, .T. );
#234 = EDGE_CURVE( '', #265, #267, #269, .T. );
#235 = EDGE_CURVE( '', #267, #265, #270, .T. );
#236 = EDGE_CURVE( '', #262, #259, #271, .T. );
#237 = EDGE_CURVE( '', #250, #248, #272, .T. );
#238 = EDGE_CURVE( '', #243, #240, #273, .T. );
#239 = EDGE_CURVE( '', #245, #241, #274, .T. );
#240 = VERTEX_POINT( '', #275 );
#241 = VERTEX_POINT( '', #276 );
#242 = LINE( '', #277, #278 );
#243 = VERTEX_POINT( '', #279 );
#244 = CIRCLE( '', #280, 8.50000000000000 );
#245 = VERTEX_POINT( '', #281 );
#246 = LINE( '', #282, #283 );
#247 = CIRCLE( '', #284, 8.49999999999999 );
#248 = VERTEX_POINT( '', #285 );
#249 = LINE( '', #286, #287 );
#250 = VERTEX_POINT( '', #288 );
#251 = CIRCLE( '', #289, 7.50000000000000 );
#252 = LINE( '', #290, #291 );
#253 = VERTEX_POINT( '', #292 );
#254 = VERTEX_POINT( '', #293 );
#255 = LINE( '', #294, #295 );
#256 = VERTEX_POINT( '', #296 );
#257 = LINE( '', #297, #298 );
#258 = CIRCLE( '', #299, 2.45850000000000 );
#259 = VERTEX_POINT( '', #300 );
#260 = LINE( '', #301, #302 );
#261 = CIRCLE( '', #303, 2.45850000000000 );
#262 = VERTEX_POINT( '', #304 );
#263 = LINE( '', #305, #306 );
#264 = CIRCLE( '', #307, 2.45850000000000 );
#265 = VERTEX_POINT( '', #308 );
#266 = LINE( '', #309, #310 );
#267 = VERTEX_POINT( '', #311 );
#268 = LINE( '', #312, #313 );
#269 = CIRCLE( '', #314, 3.00000000000000 );
#270 = CIRCLE( '', #315, 3.00000000000000 );
#271 = CIRCLE( '', #316, 2.45850000000000 );
#272 = CIRCLE( '', #317, 7.50000000000000 );
#273 = CIRCLE( '', #318, 8.50000000000000 );
#274 = CIRCLE( '', #319, 8.49999999999999 );
#275 = CARTESIAN_POINT( '', ( 8.50000000000000, 26.0000000000000, -2.08183080149804E-015 ) );
#276 = CARTESIAN_POINT( '', ( 8.49999999999999, 44.1899309798057, -2.08183080149804E-015 ) );
#277 = CARTESIAN_POINT( '', ( 8.49999999999999, 35.0949654899029, -1.04091540074902E-015 ) );
#278 = VECTOR( '', #320, 1.00000000000000 );
#279 = CARTESIAN_POINT( '', ( -8.50000000000000, 26.0000000000000, 1.04091540074902E-015 ) );
#280 = AXIS2_PLACEMENT_3D( '', #321, #322, #323 );
#281 = CARTESIAN_POINT( '', ( -8.49999999999999, 44.1899309798057, 1.04091540074902E-015 ) );
#282 = CARTESIAN_POINT( '', ( -8.49999999999999, 35.0949654899029, 1.04091540074902E-015 ) );
#283 = VECTOR( '', #324, 1.00000000000000 );
#284 = AXIS2_PLACEMENT_3D( '', #325, #326, #327 );
#285 = CARTESIAN_POINT( '', ( 7.50000000000000, 0.000000000000000, -1.83690953073357E-015 ) );
#286 = CARTESIAN_POINT( '', ( 8.00000000000000, 13.0000000000000, -9.79685083057902E-016 ) );
#287 = VECTOR( '', #328, 1.00000000000000 );
#288 = CARTESIAN_POINT( '', ( -7.50000000000000, 0.000000000000000, 9.18454765366783E-016 ) );
#289 = AXIS2_PLACEMENT_3D( '', #329, #330, #331 );
#290 = CARTESIAN_POINT( '', ( -8.00000000000000, 13.0000000000000, 9.79685083057902E-016 ) );
#291 = VECTOR( '', #332, 1.00000000000000 );
#292 = CARTESIAN_POINT( '', ( -2.45850000000000, 10.8000000000000, 3.01069472087231E-016 ) );
#293 = CARTESIAN_POINT( '', ( 0.000000000000000, 12.2194156368027, 0.000000000000000 ) );
#294 = CARTESIAN_POINT( '', ( -1.22925000000000, 11.5097078184013, 1.50534736043616E-016 ) );
#295 = VECTOR( '', #333, 1.00000000000000 );
#296 = CARTESIAN_POINT( '', ( 2.45850000000000, 10.8000000000000, -6.02138944174463E-016 ) );
#297 = CARTESIAN_POINT( '', ( 1.22925000000000, 11.5097078184013, -1.50534736043616E-016 ) );
#298 = VECTOR( '', #334, 1.00000000000000 );
#299 = AXIS2_PLACEMENT_3D( '', #335, #336, #337 );
#300 = CARTESIAN_POINT( '', ( 2.45850000000000, 0.541499999999999, -6.02138944174463E-016 ) );
#301 = CARTESIAN_POINT( '', ( 2.45850000000000, 5.67075000000000, -3.01069472087231E-016 ) );
#302 = VECTOR( '', #338, 1.00000000000000 );
#303 = AXIS2_PLACEMENT_3D( '', #339, #340, #341 );
#304 = CARTESIAN_POINT( '', ( -2.45850000000000, 0.541499999999999, 3.01069472087232E-016 ) );
#305 = CARTESIAN_POINT( '', ( -2.45850000000000, 5.67075000000000, 3.01069472087231E-016 ) );
#306 = VECTOR( '', #342, 1.00000000000000 );
#307 = AXIS2_PLACEMENT_3D( '', #343, #344, #345 );
#308 = CARTESIAN_POINT( '', ( 3.00000000000000, 0.000000000000000, -7.34763812293426E-016 ) );
#309 = CARTESIAN_POINT( '', ( 2.72925000000000, 0.270750000000000, -3.34225689116972E-016 ) );
#310 = VECTOR( '', #346, 1.00000000000000 );
#311 = CARTESIAN_POINT( '', ( -3.00000000000000, 0.000000000000000, 3.67381906146713E-016 ) );
#312 = CARTESIAN_POINT( '', ( -2.72925000000000, 0.270750000000000, 3.34225689116972E-016 ) );
#313 = VECTOR( '', #347, 1.00000000000000 );
#314 = AXIS2_PLACEMENT_3D( '', #348, #349, #350 );
#315 = AXIS2_PLACEMENT_3D( '', #351, #352, #353 );
#316 = AXIS2_PLACEMENT_3D( '', #354, #355, #356 );
#317 = AXIS2_PLACEMENT_3D( '', #357, #358, #359 );
#318 = AXIS2_PLACEMENT_3D( '', #360, #361, #362 );
#319 = AXIS2_PLACEMENT_3D( '', #363, #364, #365 );
#320 = DIRECTION( '', ( 0.000000000000000, 1.00000000000000, 0.000000000000000 ) );
#321 = CARTESIAN_POINT( '', ( 0.000000000000000, 26.0000000000000, 0.000000000000000 ) );
#322 = DIRECTION( '', ( 0.000000000000000, 1.00000000000000, 0.000000000000000 ) );
#323 = DIRECTION( '', ( 1.00000000000000, 0.000000000000000, -2.44921270764475E-016 ) );
#324 = DIRECTION( '', ( -0.000000000000000, -1.00000000000000, -0.000000000000000 ) );
#325 = CARTESIAN_POINT( '', ( 0.000000000000000, 44.1899309798057, 0.000000000000000 ) );
#326 = DIRECTION( '', ( 0.000000000000000, 1.00000000000000, 0.000000000000000 ) );
#327 = DIRECTION( '', ( 1.00000000000000, 0.000000000000000, -2.44921270764475E-016 ) );
#328 = DIRECTION( '', ( 0.0384331221012044, 0.999261174631314, -4.70654455223661E-018 ) );
#329 = CARTESIAN_POINT( '', ( 0.000000000000000, 0.000000000000000, 0.000000000000000 ) );
#330 = DIRECTION( '', ( 0.000000000000000, 1.00000000000000, 0.000000000000000 ) );
#331 = DIRECTION( '', ( 1.00000000000000, 0.000000000000000, -2.44921270764475E-016 ) );
#332 = DIRECTION( '', ( 0.0384331221012044, -0.999261174631314, -4.70654455223661E-018 ) );
#333 = DIRECTION( '', ( 0.866025403784439, 0.500000000000000, -1.06054021204601E-016 ) );
#334 = DIRECTION( '', ( 0.866025403784439, -0.500000000000000, -1.06054021204601E-016 ) );
#335 = CARTESIAN_POINT( '', ( 0.000000000000000, 10.8000000000000, 0.000000000000000 ) );
#336 = DIRECTION( '', ( 0.000000000000000, 1.00000000000000, 0.000000000000000 ) );
#337 = DIRECTION( '', ( 1.00000000000000, 0.000000000000000, -2.44921270764475E-016 ) );
#338 = DIRECTION( '', ( -0.000000000000000, -1.00000000000000, 0.000000000000000 ) );
#339 = CARTESIAN_POINT( '', ( 0.000000000000000, 10.8000000000000, 0.000000000000000 ) );
#340 = DIRECTION( '', ( 0.000000000000000, 1.00000000000000, 0.000000000000000 ) );
#341 = DIRECTION( '', ( 1.00000000000000, 0.000000000000000, -2.44921270764475E-016 ) );
#342 = DIRECTION( '', ( -0.000000000000000, 1.00000000000000, 0.000000000000000 ) );
#343 = CARTESIAN_POINT( '', ( 0.000000000000000, 0.541499999999999, 0.000000000000000 ) );
#344 = DIRECTION( '', ( 0.000000000000000, 1.00000000000000, 0.000000000000000 ) );
#345 = DIRECTION( '', ( 1.00000000000000, 0.000000000000000, -2.44921270764475E-016 ) );
#346 = DIRECTION( '', ( 0.707106781186548, -0.707106781186547, -8.65927457071936E-017 ) );
#347 = DIRECTION( '', ( 0.707106781186548, 0.707106781186547, -8.65927457071936E-017 ) );
#348 = CARTESIAN_POINT( '', ( 0.000000000000000, 0.000000000000000, 0.000000000000000 ) );
#349 = DIRECTION( '', ( 0.000000000000000, 1.00000000000000, 0.000000000000000 ) );
#350 = DIRECTION( '', ( 1.00000000000000, 0.000000000000000, -2.44921270764475E-016 ) );
#351 = CARTESIAN_POINT( '', ( 0.000000000000000, 0.000000000000000, 0.000000000000000 ) );
#352 = DIRECTION( '', ( 0.000000000000000, 1.00000000000000, 0.000000000000000 ) );
#353 = DIRECTION( '', ( 1.00000000000000, 0.000000000000000, -2.44921270764475E-016 ) );
#354 = CARTESIAN_POINT( '', ( 0.000000000000000, 0.541499999999999, 0.000000000000000 ) );
#355 = DIRECTION( '', ( 0.000000000000000, 1.00000000000000, 0.000000000000000 ) );
#356 = DIRECTION( '', ( 1.00000000000000, 0.000000000000000, -2.44921270764475E-016 ) );
#357 = CARTESIAN_POINT( '', ( 0.000000000000000, 0.000000000000000, 0.000000000000000 ) );
#358 = DIRECTION( '', ( 0.000000000000000, 1.00000000000000, 0.000000000000000 ) );
#359 = DIRECTION( '', ( 1.00000000000000, 0.000000000000000, -2.44921270764475E-016 ) );
#360 = CARTESIAN_POINT( '', ( 0.000000000000000, 26.0000000000000, 0.000000000000000 ) );
#361 = DIRECTION( '', ( 0.000000000000000, 1.00000000000000, 0.000000000000000 ) );
#362 = DIRECTION( '', ( 1.00000000000000, 0.000000000000000, -2.44921270764475E-016 ) );
#363 = CARTESIAN_POINT( '', ( 0.000000000000000, 44.1899309798057, 0.000000000000000 ) );
#364 = DIRECTION( '', ( 0.000000000000000, 1.00000000000000, 0.000000000000000 ) );
#365 = DIRECTION( '', ( 1.00000000000000, 0.000000000000000, -2.44921270764475E-016 ) );
ENDSEC;
END-ISO-10303-21;
